Cifra Club

Aprenda

Carinhoso

Pixinguinha

Cifra: Principal (violão e guitarra)
tom: G
[Intro] G  G5+  G6  G5+
        G  G5+  G6  G5+

   G       G5+     G6      G5+
E|------------------------------------------|
B|-----0-------0-------0-------0------------|
G|---0-------0-------0-------0--------------|
D|-0-----0-1-----1-2-----2-1-----1----------|
A|------------------------------------------|
E|-3-------3-------3-------3----------------|

[Primeira Parte]

   G       G5+     G6      G5+
E|------------------------------------------|
B|-----0-------0-------0-------0------------|
G|---0-------0-------0-------0--------------|
D|-0-----0-1-----1-2-----2-1-----1----------|
A|------------------------------------------|
E|-3-------3-------3-------3----------------|
                                         
   G       G5+     G6      G7
E|------------------------------------------|
B|-----0-------0-------0-------0------------|
G|---0-------0-------0-------0--------------|
D|-0-----0-1-----1-2-----2-3----3-----------|
A|------------------------------------------|
E|-3-------3-------3-------3----------------|

   Bm      Bm5+     Bm6     Bm5+
E|------------------------------------------|
B|-----7-------7-------7-------7------------|
G|---7-------7-------7-------7--------------|
D|-4-----4-5-----5-6-----6-5-----5----------|
A|------------------------------------------|
E|-7-------7-------7-------7----------------|

   Bm      Bm5+     Bm6     B7
E|------------------------------------------|
B|-----7-------7-------7-------7------------|
G|---7-------7-------7-------8--------------|
D|-4-----4-5-----5-6-----6-7-----7----------|
A|------------------------------------------|
E|-7-------7-------7-------7----------------|

         G  G5+  G6
Meu coração
 G5+          G  G5+  G6
Não sei por quê
 G7     Bm  Bm5+  Bm6
Bate feliz
 Bm5+      Bm  Bm5+  Bm6
Quando te vê

[Segunda Parte]

   Em7     A7(13)  D6(9)   G7(13)
E|------------------------------------------|
B|---8---8---7---7---5---5---5---5----------|
G|---7---7---6---6---4---4---4---4----------|
D|---9---9---5---5---4---4---3---3----------|
A|---------0-------5------------------------|
E|-0-----------------------3----------------|

   C6(9)   E7      Am7
E|------------------------------------------|
B|---3---3---3---3---1---1---1---1----------|
G|---2---2---1---1---0---0---0---0----------|
D|---2---2---2---2---2---2---2---1----------|
A|-3---------------0-------0----------------|
E|---------0--------------------------------|

   A7(13)
E|------------------------------------------|
B|-------------------------5-------3--------|
G|-------2-0---------------5-------2--------|
D|-----2-----4-2h4p2-0-----4-------4--------|
A|-0-4-----------------4-5-----5-3-----3----|
E|------------------------------------------|

   G       Eb7 D7   G6(9)
E|---------3---2----------------------------|
B|---------2---1----3-----------------------|
G|---------3---2----2-----------------------|
D|-5-4-3-2-1---0----2-----------------------|
A|-2----------------2-----------------------|
E|------------------3-----------------------|

B7        Em7    A7(13)   D6(9)
E os meus olhos ficam sorrindo
G7(13)   C6(9)  E7        Am7
E pelas ruas   vão te seguindo
             A7(13) D/C    G/B  Eb7  D7  G6(9)
Mas mesmo assim,        foges de mim

[Terceira Parte]

   Bm7             Em7     F#7     Bm7
E|-2-3-2------------------------------------|
B|-3-----5-3-5-3-2-0---------2---2---3---3--|
G|-2-----------------0---0---3---3---2---2--|
D|-------------------0---0---2---2---4---4--|
A|-2-------------------------------2--------|
E|-----------------0-------2----------------|

                   Bm7  Bb7   D/A
E|------------------------------------------|
B|-------------------3---3---3---3----------|
G|-------------------2---1---2---2----------|
D|-4-5-4-2-----------4---3---4---4----------|
A|---------5-2-5-4-2---1---0----------------|
E|------------------------------------------|

   Bm7     E7/G#   A7/G    D/F#
E|------------------------------------------|
B|---3---3---3---3---2---2-------3----------|
G|---2---2---4---4---2---2-----2------------|
D|---4---4---2---2---2---2---0--------------|
A|-2----------------------------------------|
E|---------4-------3-------2----------------|

   Fm7     C/E     D7      G
E|---------------0-------2-3----------------|
B|-------4-----1-------1---0----------------|
G|-----1-----0-------2-----0-----0----------|
D|---3-------------0-------0---0---0-2--0-0-|
A|-------------------------2-2--------------|
E|-1-------0---------------3--------------3-|

              Bm7                         Em
Ah, se tu soubesses como eu sou tão carinhoso
             F#7           Bm7
E o muito e muito que te quero
       Bb7   D/A  Bm7
E como é sincero o meu amor
           E7/G#       A/G          D/F#
Eu sei que tu não fugirias mais de mim
 Fm7   Am/E  D7      G
Vem,    vem,    vem,   vem

[Quarta Parte]

   F#      F#/E    F#/C#   A#º
E|---2---2---2---2---2---2------------------|
B|---2---2---2---2---2---2---2---2----------|
G|---3---3---3---3---3---3---0---0----------|
D|-4-------2-----------------2---2----------|
A|-----------------4-------1----------------|
E|------------------------------------------|

   Am7             D7
E|------------------------------------------|
B|---1---1---1---1---3---3---3---3----------|
G|---0---0---0---0---5---5---5---5----------|
D|---2---2---2---2---4---4---4---4----------|
A|-0-------0-------5-------5----------------|
E|------------------------------------------|

   G6(9)             B7/F#
E|------------------------------------------|
B|---3---3----------------------------------|
G|---2---2---------------2---2---2---2------|
D|---2---2-2-0-----------1---1---1---1------|
A|-2-----------3-2-0-----2---2---2---2------|
E|-3-----------------3-2-------2------------|

   Em      B7/F#   Em/G    G7/B    C
E|------------------------------------------|
B|---0-----------------------3-------1------|
G|---0-------2-------0-------0-------0------|
D|---2-------1-------2-------3-------2------|
A|-----------2-------2---0-2-----2-3-----3--|
E|-0-----0-2-----2-3------------------------|

   E/D     Am/E    Eb7     G       E7
E|---0-------0-----3-------3----------------|
B|---0-------1-----2-------0---------0---0--|
G|---1-------2-----3-------0---------1---1--|
D|-0-----0-2-----2-1-------0---------0---0--|
A|-------------------------2----------------|
E|-------------------------3-----3-0--------|

   Am7     D7
E|---------2--------------------------------|
B|---1---1-1--------------------------------|
G|---0---0-2--------------------------------|
D|---2---2-0--------------------------------|
A|-0----------------------------------------|
E|------------------------------------------|

                F#  F#/E   F#7/C#   A#º  Am7
Vem sentir o calor dos    lá_______bios meus
       D7      G6(9)   B7/F#
À procura dos teus
       Em B7/F#    Em/G
Vem matar esta paixão
 G7/B     C   E/D    Am/E
Que me devora o coração
        Eb7    G   E7
E só assim, então
        Am7   D7        G
Serei feliz,     bem feliz

[Final] G  G7  C/G  Cm/G
        G  Bbm6  Am7  Ab7M  G7M(6)
  
   G       G7      C/G     Cm/G
E|------------------------------------------|
B|------------------------------------------|
G|-0-----0-------0-------0-------0----------|
D|-0---0---3---3---2---2---1---1------------|
A|-2-2-----2-2-----3-3-----3-3--------------|
E|-3-------3-------3-------3----------------|

   G       Bbm6    Am7     Ab7M    G7M(6)
E|---------------------------------0--------|
B|---------------------------------0--------|
G|-0-----0-0-----0-0-----0-0-----0-0--------|
D|-0---0---5---5---5---5---5---5---4--------|
A|-2-2-----4-4-----2-2-----3-3-----2--------|
E|-3-------6-------3-------4-------3--------|
Composição de João de Barro / Pixinguinha
705.346 exibições
  • Simplificar cifra
    • ½ Tom
    • A
    • Bb
    • B
    • C
    • Db
    • D
    • Eb
    • E
    • F
    • F#
    • G
    • Ab
  • Adicionar à lista

    0 comentários

    Ver todos os comentários
    00:00 / 00:00
    Outros vídeos desta música
    Repetir Qualidade Automático
    Outros vídeos desta música
    00:00 / 00:00
    Automático
    Capítulos
    • Início
    • Tocando a música
    • Acordes da introdução
    • Tocando introdução
    • Ensinando dedilhado da intro
    • Acordes da primeira parte
    • Tocando primeira parte
    • Ensinando arranjo primeira parte
    • Ensinando arranjo (parte 1 e 2)
    • Ensinando arranjo (parte 3 e 4)
    • Acordes da segunda parte
    • Tocando segunda parte
    • Ensinando arranjo segunda parte
    • Ensinando arranjo (parte 1 e 2)
    • Ensinando arranjo (parte 3 e 4 - baixaria)
    • Acordes da terceira parte
    • Tocando terceira parte
    • Ensinando arranjo terceira parte
    • Ensinando arranjo (parte 1)
    • Ensinando arranjo (parte 2)
    • Ensinando arranjo (parte 3 e 4)
    • Acordes da quarta parte
    • Tocando quarta parte
    • Ensinando arranjo quarta parte
    • Ensinando arranjo (parte 1 e 2)
    • Ensinando arranjo (parte 3)
    • Ensinando arranjo (parte 4 - 6)
    • Acordes arranjo final
    • Tocando arranjo final
    • Ensinando arranjo final
    • Encerramento

    Cifra Club Pro

    Aproveite o Cifra Club com benefícios exclusivos e sem anúncios
    Cifra Club Pro
    Aproveite o Cifra Club com benefícios exclusivos e sem anúncios
    OK