Cifra Club

Aprenda

Carinhoso

Pixinguinha

Cifra: Versão 4 (violão e guitarra)
tom: E
                                                                       
E||--0----0--------------|--0--------------0----|------------0---------|
B||--1---------3----1----|--1---------1---------|-------1--------------|
G||--0-------------------|--0----0--------------|--1--------------1----|
D||----------------------|----------------------|----------------------|
A||--3-------------------|--3-------------------|----------------------|
E||----------------------|----------------------|--0-------------------|
                                                                     
------------0---------|--0--------------0----|------------0---------|
-------1--------------|--0----3----1----1----|-------1--------------|
--2--------------2----|--1--------------0----|--0--------------1----|
----------------------|--3-------------------|----------------------|
--0-------------------|-----------------3----|----------------------|
----------------------|----------------------|----------------------|

                                                                    
-------0--------------|-------0---------3----|--2----0----3---------|
--1-------------------|--1--------------3----|----------------------|
------------1----2----|------------2----2----|----------------------|
----------------------|----------------------|-----------------2----|
-----------------0----|-----------------2----|----------------------|
----------------------|----------------------|------------0---------|

                                                                    
----------------------|----------------------|------------3----2----|
-------0----1---------|-------1----2---------|-------2----3---------|
--0---------0---------|--0---------0---------|--0---------2---------|
------------2----2----|------------2----2----|----------------------|
----------------------|----------------------|------------2---------|
------------0---------|------------0---------|----------------------|

                                                                    
--0----7--------------|--7-------------------|----------------------|
-----------------0----|-------5--------------|--5----5--------------|
------------0---------|-------5---------5----|-------6---------6----|
----------------------|-------5----5---------|-------5----5---------|
----------------------|----------------------|----------------------|
-------0--------------|-------0--------------|-------0--------------|

                                                                        
-------7----6----7----|--10--------------10----|--7----5----10----5----|
--5----8--------------|--8----------8----------|--7---------------5----|
-------7--------------|--9-----9---------------|--5---------------3----|
----------------------|------------------------|------------------3----|
----------------------|--0---------------------|--0--------------------|
-------0--------------|------------------------|-----------------------|

                                                                     
------------3----5----|--3----8----3---------|-------1----1----0----|
-------5---------5----|------------1---------|--1---------2---------|
--3--------------3----|------------2----2----|------------0---------|
----------------------|----------------------|----------------------|
-----------------3----|----------------------|------------0---------|
----------------------|------------1---------|----------------------|

                                                                     
--5----0--------------|--0----0--------------|--0--------------0----|
-------1---------1----|-------0----3----1----|--1---------1---------|
-------2----2---------|-------1--------------|--0----0--------------|
-------3--------------|-------3--------------|----------------------|
----------------------|----------------------|--3-------------------|
----------------------|----------------------|----------------------|

                                                                     
--0--------------0----|--0--------------0----|----------------------|
--1---------1---------|--1---------1---------|--3----1----3----1----|
--0----0--------------|--2----2--------------|--1--------------0----|
----------------------|--3-------------------|--3--------------2----|
--1-------------------|--0-------------------|-----------------3----|
----------------------|----------------------|--1-------------------|

                                                                  
----------------------|----------------------|--0---------------||
----------------------|--1---------0----1----|--0----3----1-----||
----------------------|--1---------0----0----|--1--------------*||
----------------------|-----------------2----|--3--------------*||
--2----1----0---------|-----------------3----|------------------||
-----------------4----|-------3--------------|------------------||

                                                                       
-------7----8----7----|------------------------|-------0----2----0----|
--1----7--------------|--10----8----10----8----|--7----0--------------|
--0----8--------------|--------9---------------|-------0--------------|
--2-------------------|--------7---------------|----------------------|
--3-------------------|--------7---------------|----------------------|
-------7--------------|------------------------|-------0--------------|

                                                                     
-----------------0----|--2----3----2----0----|--2----0--------------|
--3----1----3---------|-------3--------------|-------0----0---------|
-------0--------------|-------2--------------|-------0--------------|
-------2--------------|----------------------|----------------------|
-------3--------------|-------2--------------|-----------------2----|
----------------------|----------------------|-------0--------------|

                                                                     
----------------------|-----------------0----|--2----3----5----7----|
----------------------|-----------------0----|----------------------|
----------------------|-----------------0----|----------------------|
----------------------|----------------------|-----------------0----|
--3----2----0---------|--0-------------------|----------------------|
-----------------3----|-------3----2----0----|----------------------|

                                                                     
--5----3----0---------|--0----2----3----5----|--7----5----0----3----|
-----------------3----|-----------------5----|-----------------1----|
-----------------4----|-----------------5----|-----------------2----|
-----------------3----|-----------------5----|-----------------0----|
----------------------|-----------------0----|----------------------|
-----------------4----|----------------------|----------------------|

                                                                     
--2---------3---------|-------3----4---------|-------4----5---------|
-------3----3---------|--3---------3---------|--3---------6---------|
------------4----4----|------------4----4----|------------5----5----|
----------------------|------------3---------|------------0---------|
----------------------|----------------------|----------------------|
------------3---------|----------------------|----------------------|

                                                                     
-------5----7---------|-------7----8---------|-------5--------------|
--6---------6---------|--6---------5---------|--5---------8----6----|
------------7----7----|------------5----5----|----------------------|
------------6---------|------------5---------|----------------------|
----------------------|----------------------|----------------------|
----------------------|----------------------|----------------------|

                                                                     
-----------------7----|--5-------------------|----------------------|
--5-------------------|-------8----5---------|--0-------------------|
-------7----5---------|-----------------5----|--2----2--------------|
----------------------|----------------------|--1---------1---------|
----------------------|----------------------|--2--------------2----|
----------------------|----------------------|----------------------|

                                                                     
----------------------|------------2----7----|--5--------------5----|
------------0---------|-------4--------------|--7---------7---------|
-----------------3----|--2----3--------------|--5----5--------------|
--1----4--------------|-------4--------------|--0-------------------|
----------------------|-------2--------------|----------------------|
----------------------|----------------------|----------------------|

                                                                    
--5-------------------|-------1----0---------|--0----1----0---------|
--5---------7---------|-------3---------3----|------------1---------|
--5----5--------------|-------0--------------|------------0----0----|
--0-------------------|----------------------|----------------------|
-----------------0----|--2-------------------|------------3---------|
----------------------|----------------------|----------------------|

                                                                          
-------0----0---------|------------0----1----|------------0----8----8----|
--1---------1----3----|--1----3--------------|--0----4---------5----5----|
------------0---------|-------2--------------|--1--------------5----5----|
----------------------|-------3--------------|--2------------------------|
------------3---------|-------2--------------|-----------------0----0----|
----------------------|----------------------|--0------------------------|

                                                                     
------------8----7----|--8----7----5---------|-------5----3----5----|
-------5---------5----|------------5---------|--5---------5---------|
--5--------------7----|------------5----5----|------------3---------|
----------------------|----------------------|----------------------|
----------------------|------------0---------|------------3---------|
-----------------0----|----------------------|----------------------|

                                                                     
--3----1--------------|--1----0----1----0----|--1----3----3----8----|
-------1---------1----|-------2--------------|------------3---------|
-------2----2---------|-------0--------------|------------4---------|
----------------------|----------------------|------------3---------|
----------------------|-------0--------------|----------------------|
-------1--------------|----------------------|----------------------|

                                                                     
--8----0---------0----|--3-------------------|------------0---------|
--5---------4---------|--1---------1---------|-------3---------1----|
--5----0---------0----|--2----2--------------|-------0---------0----|
--5---------4---------|--0-------------------|-------0---------2----|
----------------------|-----------------0----|--2--------------3----|
----------------------|----------------------|----------------------|

                                                                     
----------------------|----------------------|-----------------0----|
------------1----1----|------------1----1----|------------1----0----|
-------0---------0----|-------0---------2----|-------2---------1----|
-----------------2----|--2--------------3----|--3--------------3----|
--2--------------1----|-----------------0----|----------------------|
----------------------|----------------------|----------------------|

                                                                     
------------0---------|-------0----0---------|-------0----0---------|
--3----1----1---------|--1---------1---------|--1---------1---------|
------------0----0----|------------0----0----|------------2---------|
----------------------|----------------------|------------3----3----|
------------3---------|------------1---------|------------0---------|
----------------------|----------------------|----------------------|

                                     
------------0---------|-------0----||
-------1----0----3----|--1----0----||
--2---------1---------|-------0----||
------------3---------|-------2----||
----------------------|-------3----||
----------------------|------------||
Composição de João de Barro / Pixinguinha
Colaboração e revisão:
  • Ednaldo Souza
10.046 exibições
  • Simplificar cifra
    • ½ Tom
    • A
    • Bb
    • B
    • C
    • Db
    • D
    • Eb
    • E
    • F
    • F#
    • G
    • Ab
  • Adicionar à lista

    0 comentários

    Ver todos os comentários
    00:00 / 00:00
    Outros vídeos desta música
    Repetir Qualidade Automático
    Outros vídeos desta música
    00:00 / 00:00
    Automático
    Capítulos
    • Início
    • Tocando a música
    • Acordes da introdução
    • Tocando introdução
    • Ensinando dedilhado da intro
    • Acordes da primeira parte
    • Tocando primeira parte
    • Ensinando arranjo primeira parte
    • Ensinando arranjo (parte 1 e 2)
    • Ensinando arranjo (parte 3 e 4)
    • Acordes da segunda parte
    • Tocando segunda parte
    • Ensinando arranjo segunda parte
    • Ensinando arranjo (parte 1 e 2)
    • Ensinando arranjo (parte 3 e 4 - baixaria)
    • Acordes da terceira parte
    • Tocando terceira parte
    • Ensinando arranjo terceira parte
    • Ensinando arranjo (parte 1)
    • Ensinando arranjo (parte 2)
    • Ensinando arranjo (parte 3 e 4)
    • Acordes da quarta parte
    • Tocando quarta parte
    • Ensinando arranjo quarta parte
    • Ensinando arranjo (parte 1 e 2)
    • Ensinando arranjo (parte 3)
    • Ensinando arranjo (parte 4 - 6)
    • Acordes arranjo final
    • Tocando arranjo final
    • Ensinando arranjo final
    • Encerramento

    Cifra Club Pro

    Aproveite o Cifra Club com benefícios exclusivos e sem anúncios
    Cifra Club Pro
    Aproveite o Cifra Club com benefícios exclusivos e sem anúncios
    OK