Cifra Club

Vai Errar de Novo

Grupo Pixote

Cifra: Principal (violão e guitarra)
tom: Bb
[Intro] Cm7  Eb7M  Gm7  F4  F 

E|--------8-10---15-----8-10-8----------10--|
B|-8-10-11----------13---------11-8---------|
G|-----------------------------------10-----|
D|------------------------------------------|
A|------------------------------------------|
E|------------------------------------------|

E|-------------8-10-11-13-11----------------|
B|-----8-10-11------------------------------|
G|--10--------------------------------------|
D|------------------------------------------|
A|------------------------------------------|
E|------------------------------------------|

[Primeira Parte]

Cm7
   Era mais fácil
              Dm7  Eb7M
Ter falado a ver__dade

Doía menos ter cortado
       Bb7M
O mal pela raiz
             F
E eu aqui jurando

Que a gente era feliz

( Eb7M    F9 )

[Pré-Refrão]

                  Bb7M
Depois que eu tentei, tentei, tentei
            F
Eu me diminui

Pra me encaixar no seu amor
 Cm7
Você não cuidou
   Eb7M        F
Você só desprezou

[Refrão]

                Bb7M
Eu te amei foi muito, muito, muito
               F
Mas você amou pouco, pouco, pouco
              Cm7
Depois de me perder

Cê vai tentar com outro
                Eb7M
E vai errar de novo
                  F
E vai errar de novo

                Bb7M
Eu te amei foi muito, muito, muito
               F
Mas você amou pouco, pouco, pouco
              Cm7
Depois de me perder

Cê vai tentar com outro
                Eb7M
E vai errar de novo
                  Ebm6
E vai errar de novo

    Cm7
Um dia cê vai entender
      Eb7M                Ebm6
Que o erro não tá em ninguém
         Bb9
Tá em você!

[Solo] Cm7  Eb7M  Gm7  F4  F 

E|--------8-10---15-----8-10-8----------10--|
B|-8-10-11----------13---------11-8---------|
G|-----------------------------------10-----|
D|------------------------------------------|
A|------------------------------------------|
E|------------------------------------------|

E|-------------8-10-11-13-11----------------|
B|-----8-10-11------------------------------|
G|--10--------------------------------------|
D|------------------------------------------|
A|------------------------------------------|
E|------------------------------------------|

[Primeira Parte]

Cm7
   Era mais fácil
              Dm7  Eb7M
Ter falado a ver__dade

Doía menos ter cortado
       Bb7M
O mal pela raiz
             F
E eu aqui jurando

Que a gente era feliz

( Eb7M  F9 )

[Pré-Refrão]

                  Bb7M
Depois que eu tentei, tentei, tentei
            F
Eu me diminui

Pra me encaixar no seu amor
 Cm7
Você não cuidou
   Eb7M        F
Você só desprezou

[Refrão]

                Bb7M
Eu te amei foi muito, muito, muito
               F
Mas você amou pouco, pouco, pouco
              Cm7
Depois de me perder

Cê vai tentar com outro
                Eb7M
E vai errar de novo
                  F
E vai errar de novo

                Bb7M
Eu te amei foi muito, muito, muito
               F
Mas você amou pouco, pouco, pouco
              Cm7
Depois de me perder

Cê vai tentar com outro
                Eb7M
E vai errar de novo
                  F
E vai errar de novo

                Bb7M
Eu te amei foi muito, muito, muito
               F
Mas você amou pouco, pouco, pouco
              Cm7
Depois de me perder

Cê vai tentar com outro
                Eb7M
E vai errar de novo
                  F
E vai errar de novo

                Bb7M
Eu te amei foi muito, muito, muito
               F
Mas você amou pouco, pouco, pouco
              Cm7
Depois de me perder

Cê vai tentar com outro
                Eb7M
E vai errar de novo

E vai errar de novo

    Cm7
Um dia cê vai entender
      Eb7M                Ebm6
Que o erro não tá em ninguém
         Bb9
Tá em você!

[Final Cm7  Eb7M  Bb7M

E|--------8-10---15-----8-10-8----------10--|
B|-8-10-11----------13---------11-8---------|
G|-----------------------------------10-----|
D|------------------------------------------|
A|------------------------------------------|
E|------------------------------------------|
00:00 / 00:00
Outros vídeos desta música
Repetir
Outros vídeos desta música
Composição de Junior Gomes / Benicio Neto / Leandro Rojas / Vine Show
Colaboração e revisão:
  • Gustavo Vaz
  • Roberto Ferraz
15.267 exibições
  • Simplificar cifra
    • ½ Tom
    • A
    • Bb
    • B
    • C
    • Db
    • D
    • Eb
    • E
    • F
    • F#
    • G
    • Ab
  • Adicionar à lista

    0 comentários

    Ver todos os comentários

    Conseguiu tocar?

    3 Tocaram 0 Ainda não

    Grave um vídeo tocando Vai Errar de Novo e nos envie!

    Entre para oCifra Club PRO

    Tenha acesso a benefícios exclusivos no App e no Site

    • Chega de anúncios

    • Prioridade de compra em lançamentos

    • Mais recursos no app do Afinador

    • Atendimento Prioritário

    • Descontos nos produtos Cifra Club

    • Ajude a produzir mais conteúdo

    00:00 / 00:00

    Cifra Club Pro

    Aproveite o Cifra Club com benefícios exclusivos e sem anúncios
    Cifra Club Pro
    Aproveite o Cifra Club com benefícios exclusivos e sem anúncios
    OK