Breakdown Solo

Plain White T's

tom: E
         This is just the solo. Its not hard at all. Its super easy. It goes like this.....
e |--------------------------------------------------------------------|
B |------------5~-------------5-4--------------------------------------|
G |---4--6--4------4--6--4------------4-6-4-6--1-1-1--4-6-6-4-6--------|  
D |--------------------------------------------------------------------|  
A |--------------------------------------------------------------------|
E |--------------------------------------------------------------------|

e |---------------5~--------------------------------------------------|
B |--------------------------------5-4--5--4--2--0--------------------|
G |----4--6--4-------4--6--4------------------------------------------|  
D |---------------------------------------------------1--2--1---------|  
A |----------------------------------------------2--4-----------2-----|
E |-------------------------------------------------------------------|
         And there u go. Its easy isnt it. yup. haha  
         Plain White T's is an awsome band!!!!
Página 1 / 1

Letras e título
Acordes e artista

resetar configurações
OK