Let Me Take You There Intro

Plain White T's

tom: A
E |--5------|
B |----5----|
G |------6--|
D |---------| x5
A |---------|
E |---------|

E |--7------|
B |----9----|
G |------9--| x5
D |---------|
A |---------|
E |---------|

E |--9-------|
B |----10----|
G |-------11-|
D |----------| x5
A |----------|
E |----------|

E |--5------|
B |----7----|
G |------7--|
D |---------| x5
A |---------|
E |---------|

Página 1 / 1

Letras e título
Acordes e artista

resetar configurações
OK