Cifra Club

Aprenda

Let Me Take You There

Plain White T's

Cifra: Principal (violão e guitarra)
tom: D
Album:Every Second Counts(2006)
Tabbed By:*
Tuning:Standard

Guitar 1
Intro, Chorus 1, Verse
|--|
|--|
|--|
|--|
|--|
|--|

|-7-5---7-5---7-5---7-5---7-5-----7-----7-----7-----7-----7-----|
|-----5-----5-----5-----5-----5-----9-----9-----9-----9-----9---|
|-------------------------------------9-----9-----9-----9-----9-|
|---------------------------------------------------------------|
|---------------------------------------------------------------|
|---------------------------------------------------------------|
                                                                  x A lot
|-9-------9-------9-------9-------9---------5-----5-----5-----5-----5-----|
|---10------10------10------10------10--------7-----7-----7-----7-----7---|
|------11------11------11------11------11-------7-----7-----7-----7-----7-|
|-------------------------------------------------------------------------|
|-------------------------------------------------------------------------|
|-------------------------------------------------------------------------|
Play this through the intro, first chorus and the verse.

Chorus 2,Bridge
|-5-5-5-5-5-5-5-5-7-7-7-7-7-7-7-7-9--9--9--9--9--9--9--9--5-5-5-5-5-5-5-5-|
|-5-5-5-5-5-5-5-5-9-9-9-9-9-9-9-9-10-10-10-10-10-10-10-10-5-5-5-5-5-5-5-5-|
|-------------------------------------------------------------------------|
|-------------------------------------------------------------------------|
|-------------------------------------------------------------------------|
|-------------------------------------------------------------------------|

Interlude
|-7-5---7-5---7-5---7-5---7-5-----7-----7-----7-----7-----7-----|
|-----5-----5-----5-----5-----5-----9-----9-----9-----9-----9---|
|-------------------------------------9-----9-----9-----9-----9-|
|---------------------------------------------------------------|
|---------------------------------------------------------------|
|---------------------------------------------------------------|
                                                                  x A lot
|-9-------9-------9-------9-------9---------5-----5-----5-----5-----5-----|
|---10------10------10------10------10--------7-----7-----7-----7-----7---|
|------11------11------11------11------11-------7-----7-----7-----7-----7-|
|-------------------------------------------------------------------------|
|-------------------------------------------------------------------------|
|-------------------------------------------------------------------------|

Chorus 2,Bridge
|-5-5-5-5-5-5-5-5-7-7-7-7-7-7-7-7-9--9--9--9--9--9--9--9--5-5-5-5-5-5-5-5-|
|-5-5-5-5-5-5-5-5-9-9-9-9-9-9-9-9-10-10-10-10-10-10-10-10-5-5-5-5-5-5-5-5-|
|-------------------------------------------------------------------------|
|-------------------------------------------------------------------------|
|-------------------------------------------------------------------------|
|-------------------------------------------------------------------------|

Outro
|-7-5---7-5---7-5-|
|-----5-----5-----|
|-----------------|
|-----------------|
|-----------------|
|-----------------|
==========================================================================
Guitar 2
Intro doesnt play
Chorus 1
|--------------------------------------------------------|x2
|--------------------------------------------------------|
|--------------------------------------------------------|
|-------------------------------------------7--7--7--7-7-|
|-7--7--7--7-7--2--2--2--2-2--4--4--4--4-4--5--5--5--5-5-|
|-5--5--5--5-5--0--0--0--0-0--2--2--2--2-2---------------|

Verse
|--------------------------------------------|x2
|--------------------------------------------|
|--------------------------------------------|
|----------------------------------7-7-7-7-7-|
|-7-7-7-7-7--2-2-2-2-2--4-4-4-4-4--5-5-5-5-5-|
|-5-5-5-5-5--0-0-0-0-0--2-2-2-2-2------------|

Chorus
|-------------------------------------------------|x2
|-------------------------------------------------|
|-------------------------------------------------|
|-------------------------------------7-7-7-7-7-7-|
|-7-7-7-7-7-7-2-2-2-2-2-2-4-4-4-4-4-4-5-5-5-5-5-5-|
|-5-5-5-5-5-5-0-0-0-0-0-0-2-2-2-2-2-2-------------|

Bridge
|-------------------------------------------------|x2
|-------------------------------------------------|
|-------------------------------------------------|
|-------------------------------------7-7-7-7-7-7-|
|-7-7-7-7-7-7-2-2-2-2-2-2-4-4-4-4-4-4-5-5-5-5-5-5-|
|-5-5-5-5-5-5-0-0-0-0-0-0-2-2-2-2-2-2-------------|

Chorus
|-------------------------------------------------|x2
|-------------------------------------------------|
|-------------------------------------------------|
|-------------------------------------7-7-7-7-7-7-|
|-7-7-7-7-7-7-2-2-2-2-2-2-4-4-4-4-4-4-5-5-5-5-5-5-|
|-5-5-5-5-5-5-0-0-0-0-0-0-2-2-2-2-2-2-------------|

Bridge
|-------------------------------------------------|x2
|-------------------------------------------------|
|-------------------------------------------------|
|-------------------------------------7-7-7-7-7-7-|
|-7-7-7-7-7-7-2-2-2-2-2-2-4-4-4-4-4-4-5-5-5-5-5-5-|
|-5-5-5-5-5-5-0-0-0-0-0-0-2-2-2-2-2-2-------------|
19.938 exibições
    • ½ Tom
    • A
    • Bb
    • B
    • C
    • Db
    • D
    • Eb
    • E
    • F
    • F#
    • G
    • Ab
  • Adicionar à lista

    0 comentários

    Ver todos os comentários

    Conseguiu tocar?

    0 Tocaram 0 Ainda não

    Grave um vídeo tocando Let Me Take You There e nos envie!

    00:00 / 00:00
    outros vídeos desta música
    repetir qualidade Automático
    Outros vídeos desta música
    00:00 / 00:00
    Automático

    Cifra Club Pro

    Aproveite o Cifra Club com benefícios exclusivos e sem anúncios
    Cifra Club Pro
    Aproveite o Cifra Club com benefícios exclusivos e sem anúncios
    OK