Cifra Club

Aprenda

Radios In Heaven

Plain White T's

Cifra: Principal (violão e guitarra)
tom: A
Intro: A D E F#m x2

Intro - Guitar 1 (light distortion)
e|-----------------------------------|
b|-----------------------------------|
g|--6p4----7-7-7p6-------------------|
d|------7----------7--7-7-6-6-4h6/7--|
a|-----------------------------------|
E|-----------------------------------|

e|-----------------------------------|
b|-----------------------------------|
g|--6p4----7-7-7p6-------------------|
d|------7----------7--7-7-6-6-4h6p4--|
a|-----------------------------------|
E|-----------------------------------|

A                D                E          F#m
Your time has already come and I don't know why
A                   D                     E          F#m
The last thing that I had heard you were doing just fine
A                   D               E            F#m
It seems like just yesterday I was laughing with you
A                  D                       E          F#m
Playing games at Grandma's house well you taught me well, 
        D                        E
Didn't you? I hope I'm just like you

CHORUS:
            A             E                F#m       D 
Do they have radios in heaven? I hope they do
A                                     E
Cause they're playing my song on the radio
                       F#m        D
And I'm singing it to you

A D E F#m 
Interlude 
e|-----------------------------------|
b|-----------------------------------|
g|--6p4----7-7-7p6-------------------|
d|------7----------7--7-7-6-6-4h6/7--|
a|-----------------------------------|
E|-----------------------------------|

e|-----------------------------------|
b|-----------------------------------|
g|--6p4----7-7-7p6-------------------|
d|------7----------7--7-7-6-6-4h6p4--|
a|-----------------------------------|
E|-----------------------------------|

e|---------------------|
b|---------------------|
g|---6/7--6--4--4/6----|
d|---------------------|
a|---------------------|
E|---------------------|

A                 D                E        F#m
You left before I had a chance to say goodbye
A                       D                   E         F#m
But that's the way life usually is it just passes you by
A                  D                      E           F#m
But you can't hold on to regrets and you can't look back
A                D               E            F#m        D
So I'll just be thankful for the times that I had with you
                      E
I hope I'm just like you

CHORUS:
            A             E                F#m       D 
Do they have radios in heaven? I hope they do
A                                     E
Cause they're playing my song on the radio
                       F#m        D
And I'm singing it to you
    
                  A           E                      F#m   D      
If they don't have radios in heaven here's what I'll do
A                              E
I can bring my guitar when my time is up 
                      F#m        D
And I'll play it for you

A E F#m D under solo


e|-----------------------------------------|
b|---5----5----5----5----5----5----5----5--|
g|--2-2--2-2--4-4--4-4--2-2--2-2--7-7--7-7-|
d|-2----2----2----2----4----4----0----0----|
a|-----------------------------------------|
E|-----------------------------------------|


Solo
Guitar 2
e|-----------------------------------|
b|-----------------------------------|
g|--6p4----7-7-7p6-------------------|
d|------7----------7--7-7-6-6-4h6/7--|
a|-----------------------------------|
E|-----------------------------------|
                                        x2
e|-----------------------------------|
b|-----------------------------------|
g|--6p4----7-7-7p6-------------------|
d|------7----------7--7-7-6-6-4h6p4--|
a|-----------------------------------|
E|-----------------------------------|

B                       F#m
Tell me can you hear me now
B                   F#m     
If not, then I can try to sing real loud
B                        F#m                 D (barred)
What's it like up on the other side of the clouds?
                     B
I hope I'm just like you
  D (barred)                         E (barred)
I hope I turn out to be as good as you

CHORUS (with key change):

              B           F#m
Do they have radios in heaven?
            G#m      B
I hope they do
B                                     F#m
Cause they're playing my song on the radio
                       G#m       B
And I'm singing it to you
                  B             F#m
If they don't have radios in heaven
                 G#m      B
Here's what I'll do
B                               F#m
I can bring my guitar when my time is up
                     G#m        B
And I'll play it for you

Repeat B F#m G#m B
Colaboração e revisão:
  • Gabriel Pinto
5.844 exibições
    • ½ Tom
    • A
    • Bb
    • B
    • C
    • Db
    • D
    • Eb
    • E
    • F
    • F#
    • G
    • Ab
  • Adicionar à lista

    0 comentários

    Ver todos os comentários

    Conseguiu tocar?

    0 Tocaram 0 Ainda não

    Grave um vídeo tocando Radios In Heaven e nos envie!

    00:00 / 00:00
    outros vídeos desta música
    repetir qualidade Automático
    Outros vídeos desta música
    00:00 / 00:00
    Automático

    Cifra Club Pro

    Aproveite o Cifra Club com benefícios exclusivos e sem anúncios
    Cifra Club Pro
    Aproveite o Cifra Club com benefícios exclusivos e sem anúncios
    OK