Cifra Club

Aprenda

A Culpa É De Quem ?

Planet Hemp

Cifra: Principal (violão e guitarra)
tom: C
Introdução: Riff 1, Riff 2

Riff 2
Se eu Trabalho oito horas, sete dias por semana
Só por fumar uma erva, eu vou entrar em cana
Deputados cheiram, bebem e não vão para a prisão
Por que é ilegal? Eles que lesam a pátria e sou eu o marginal?
Não, não seja alienado eles falam que faz mal e você aceita calado!
Procure se informar 
Uma erva natural não pode te prejudicar
E quem de nós está errado?
Você consome essas merdas
E eu fumo um baseado
No que você pensa então?
Eles pegam a palmatória e você estende a mão
Desde pequeno você é
Induzido a fumar
Induzido a beber
Ouvindo a TV falar:
Diga não as drogas
Use camisinha e
Pare de brigar
Mas beba muito álcool até sua barriga inchar
O que você tem na cabeça?
Tudo que eles te falam você acha uma beleza
Aprenda a dizer NÃO
Pense um pouco meu irmão:
Você tem medo de quem? 
Fumo a minha erva e não faço mal a ninguém
A culpa é de quem? A culpa é de quem?

Riff 2
Quem? Quem? Quem? A culpa é de quem?
Riff 3
Quem? Quem? Quem? A culpa é de quem?
Riff 2
Quem? Quem? Quem? A culpa é de quem?
Riff 3
Quem? Quem? Quem? A culpa é de quem?

Riff 4 (4x)

Riff 2
A culpa é de quem?
Portugueses escravizaram e mataram nossos irmãos
Militares torturam e não foram pra prisão
Eu fumo a minha erva 
Me chamam de ladrão
Os negros já fumavam a erva antes da África deixar
Mas os senhores proibiram por não quererem nos libertar
E os senhores de hoje em dia estão proibindo também
Se o pobre começa a pensar, parece que incomoda alguém
Crianças crescem nas ruas, não confiam em ninguém
Escondem nossa cultura
Referência niguém tem
O país tá uma merda e 
A culpa é de quem?
A culpa é de quem?
A culpa é de quem?
A culpa é de quem?

Riff 2
Quem? Quem? Quem? A culpa é de quem?
Riff 3
Quem? Quem? Quem? A culpa é de quem?
Riff 2
Quem? Quem? Quem? A culpa é de quem?
Riff 3
Quem? Quem? Quem? A culpa é de quem?

Riff 1

Solo

Riff 1
A culpa é de quem?
Eles roubam no planalto e não pensam em ninguém
Manipulam as leis e vêm com papo furado
Tudo que incomoda eles, eles dizem estar errado 
Então quem é o marginal?
                        Riff 2 
Crianças morrem por sua culpa e eu que vivo ilegal
Tenho que me esconder por uma coisa natural
Enquanto eles metem a mão 
Na maior cara-de-pau
Nâo vou ficar calado
Porque está tudo errado
Políticos cruzam os braços e o país tá uma merda
Trabalho pra caralho e fumo a minha erva
Aí eu te pergunto: A culpa é de quem? A culpa é de quem? A culpa é de quem?

Riff 2
Quem? Quem? Quem? A culpa é de quem?
Riff 3
Quem? Quem? Quem? A culpa é de quem?
Riff 2
Quem? Quem? Quem? A culpa é de quem?
Riff 3
Quem? Quem? Quem? A culpa é de quem?

Riff 4
                   D,D
A culpa é de quem ?
---------------------------------------------------------------------------------------------------------------
Riff 1
e|-5-5---5-5---5-5---5-5-
B|-5-5---5-5---5-5---5-5-|
G|-7-7---7-7---7-7---7-7-|
D|-7-7---7-7---7-7---7-7-|
A|-5-5---5-5---5-5---5-5-|
E|-5-5---5-5---5-5---5-5-/

Riff 2
e|------------------------------------------
B|------------------------------------------|
G|------------------------------------------|
D|-------------3------3-----------3---------|
A|-5-5-3h5-3h5--5-3h5---5-3h5-3h5---5-----3-|
E|------------------------------------3h5---/

Riff 3
e|----------------------------------------
B|----------------------------------------|
G|----------------------------------------|
D|-------------3------3-----------5-5-5-3-|
A|-5-5-3h5-3h5--5-3h5---5-3h5-3h5---------|
E|----------------------------------------/

Riff 4
e|-------------------
B|-------------------|
G|-------------------|
D|-----3h5-6-----3---|
A|-5-5-------5-5---5-|
E|-------------------/

Solo
e|---------------------------------------------------------------------------------------------
B|------------------------------------------------------------------------------10b------------|
G|-12b-------10-----------10-12-12-12-12-10--------12b-------10-----------10-12-----12-10------|
D|-----10h12----12--10h12-------0 -0 -0 -----12-12-----10h12----12--10h12----------------12-12-|
A|---------------------------------------------------------------------------------------------|
E|---------------------------------------------------------------------------------------------/

e|-------------------------------------------------------------------------------------------
B|----------------------------------------------------------------------------------13-------|
G|-12b-------10-----------10-12-12-12-12-10--------12b-------10-----------10-12-12b----12-10-|
D|-----10h12----12--10h12-------0 -0 -0 -----12-12-----10h12----12--10h12--------------------|
A|-------------------------------------------------------------------------------------------|
E|-------------------------------------------------------------------------------------------/
Compositor não encontrado.
111.475 exibições
    • ½ Tom
    • A
    • Bb
    • B
    • C
    • Db
    • D
    • Eb
    • E
    • F
    • F#
    • G
    • Ab
  • Adicionar à lista

    0 comentários

    Ver todos os comentários

    Conseguiu tocar?

    19 Tocaram 0 Ainda não

    Grave um vídeo tocando A Culpa É De Quem ? e nos envie!

    00:00 / 00:00
    Outros vídeos desta música
    Repetir Qualidade Automático
    Outros vídeos desta música
    00:00 / 00:00
    Automático

    Cifra Club Pro

    Aproveite o Cifra Club com benefícios exclusivos e sem anúncios
    Cifra Club Pro
    Aproveite o Cifra Club com benefícios exclusivos e sem anúncios
    OK