Cifra Club

Legalize Já

Planet Hemp

Tab de baixo: Principal
exibições 20.817
Sempre
G |--------------------------     
D |--------------------------
A |--------------------------
E |----0-0--0-3-5------------

Refrão
G |--------9-------------9---     
D |-----------7-8-8-9--9-----
A |----7-7-------------------
E |--------------------------
Composição: D2 / Marcelo D2 / Planet Hemp / Rafael / Rafael CrespoColaboração e revisão:
  • Raul

0 comentários

    mostrar mais comentários

    Conseguiu tocar?

    3tocaram0ainda não

    Grave um vídeo tocando Legalize Já e mande pra gente!

    00:00 / 00:00
    outros vídeos desta música
    repetirqualidadeautomática
    Outro vídeos desta música
      00:00 / 00:00
      automática
      OK