Cifra Club

Aprenda

Vamos Fugir ( Give Me Your Love)

Planta e Raiz

Cifra: Principal (violão e guitarra)
tom: A
Intro: D  E  F#m

Introdução
  (G2)
E|--------5-9-7-5------7------12--10-9---12--10--9---------------------------------
B|------7---------7-7/9-9-7-5------------------------------------------------------
G|--6-7------------------------------------------------repete algumas vezes--------
D|---------------------------------------------------------------------------------
A|---------------------------------------------------------------------------------
E|---------------------------------------------------------------------------------

(Refrão)
         A                E
Vamos fugir, pro outro lugar, baby,
        F#m
Vamos fugir
      D
Eu tô cansado de esperar
E                   F#m ( G2  Riff )
Que você me carregue

         A
Vamos fugir (Me dê seu amor)
        E
Desse lugar, baby, (Me dê seu amor)
        F#m
Vamos fugir
      D
Pra onde quer que vocẽ va
E               F#m ( G2  Riff )
Que você me carregue

           A           E     D
Pois diga que irá, Irajá, Irajá,
Prá onde eu só veja você,
         A            E      D
Você veja-me só, Marajó, Marajó
Qualquer outro lugar comum,
          A                  E       D
Outro lugar qualquer, Guaporé, Guaporé
Qualquer outro lugar ao sol,
           A               E        D
Outro lugar ao sul, Céu azul, céu azul
Onde haja só o meu corpo
                   E   D E
Junto ao seu corpo nu
(D E)
Uuuuu
E|------------------------------------------------
B|---3-2------------------------------------------
G|-------2-4--------------------------------------
D|-----------4-2----------------------------------
(D E)
Uuuuuu

REFRÃO

Pois diga que irá...

         A                E
Vamos fugir, pro outro lugar
        F#m
Vamos fugir
         D
Pra onde haja um tobogã
E                  F#m ( G2  Riff )
Onde a gente escorregue
     D
Todos aqueles dias de manhã
E                  F#m ( G2  Riff )
Flores que a gente regue
    D
Aquela  banda de maçã,
E                F#m ( G2  Riff )
Outra banda de reggae

Solo :
(G1) D E F#m
(G2) Solo Abaixo:

E|----------------------------------------------------------------------------------|
B|------10-10----10--14-12-9----------------10---------------------------------|
G|--11--------11---------------9--------9-11-----------9------------/11---------|
D|----------------------------------9-11-----------9-11---9--7-------------------|
A|----------------------------------------------------------------9-7--------------|
E|----------------------------------------------------------------------------------|

E|--------------------12-9--------------------------------------------------------|
B|-----10-10----10-------10----------------------10--10--12--14-14-----------|
G|--11-------11--------------9--9------9--9--/11--------------------------------|
D|----------------------------------9-7-------------------------------------------|
A|---------------------------------------------------------------------------------|
E|---------------------------------------------------------------------------------|

E|-14-12---------14-12-------------------------------------------------------------|
B|--------12-14---------12-14--14-12-10-----10-10----10-10-----10------------|
G|-------------------------------------------11--------11--------11------11-9-11-|
D|-----------------------------------------------------------------------------------|
A|-----------------------------------------------------------------------------------|
E|-----------------------------------------------------------------------------------|

E|--14-12--14-12--14-12--14-12--14-12--12p14h12-------14--------------------|
B|--------------------------------------------------------12------------------------|
G|----------------------------------------------------------------------------------|
D|----------------------------------------------------------------------------------|
A|----------------------------------------------------------------------------------|
E|----------------------------------------------------------------------------------|
___________________________________________________________________________________
-----------------------------------------------------------------------------------
Guitarra2

Riff1:
E|--------------------------------------------|
B|-14-10----10-10----10-10-----14-12-10------|
G|-------11-------11-------11-----------11---|
D|-------------------------------------------|
A|------------------------------------------|
E|--------------------------------------------|
Composição de Gilberto Gil / Liminha
Colaboração e revisão:
  • Jardel Silva
  • Carlos Braga
167.127 exibições
    • ½ Tom
    • A
    • Bb
    • B
    • C
    • Db
    • D
    • Eb
    • E
    • F
    • F#
    • G
    • Ab
  • Adicionar à lista

    0 comentários

    Ver todos os comentários

    Conseguiu tocar?

    6 Tocaram 1 Ainda não

    Grave um vídeo tocando Vamos Fugir ( Give Me Your Love) e nos envie!

    00:00 / 00:00
    Outros vídeos desta música
    Repetir Qualidade Automático
    Outros vídeos desta música
    00:00 / 00:00
    Automático

    Cifra Club Pro

    Aproveite o Cifra Club com benefícios exclusivos e sem anúncios
    Cifra Club Pro
    Aproveite o Cifra Club com benefícios exclusivos e sem anúncios
    OK