Cifra Club

Mesa 16

Plutão Já Foi Planeta

Cifra: Principal (violão e guitarra)
tom: F#
[tab - intro]

E|------------------------------------------|
B|------------------------------------------|
G|------------------------------------------|
D|-----------------------4------------------|
A|---------4---------4h6---6-4--------------|
E|-2-2-4h6---6-4-6-6------------------------|

E|------------------------------------------|
B|------------------------------------------|
G|------------------------------------------|
D|---------6-6-6-6/8-8-6-6------------------|
A|------------------------------------------|
E|-4-4--4-----------------------------------|

E|------------------------------------------|
B|------------------------------------------|
G|------------------------------------------|
D|-4-4-------------------4------------------|
A|---------4---------4h6---6-4--------------|
E|-----4h6---6-4-6-6------------------------|

E|------------------------------------------|
B|------------------------------------------|
G|-------------------6----------------------|
D|------6-6-6--6-6/8---6-6------------------|
A|-------------------------9----------------|
E|-4-4--------------------------------------|

          F#
Concentração distraída
   A#m
O copo na mesa
G#m
Atenção perdida

F#                A#m
Olho no lance, é gol, gritaram
        G#m
Eu não sei do que falam

Nem sei se me chamaram

   B          C#
Então ela chegou
    B           C#
E chegou tão bonita
  B            C#
Atenção na chegada
    B         C#
Esqueci a partida

       G#m
Quem é ela que chegou?
       B9
Quem é ela que pediu a cerveja?
       G#m                 B9
Quem é ela que gritou: garçom me vê já uma mesa!

       G#m
Quem é ela que chegou?
       B9
Quem é ela que pediu a cerveja?
       G#m                 B9                   C#
Quem é ela que gritou: garçom me vê já uma mesa!

( G#m  B9  G#m  B9 )
( G#m  B9  G#m  B9 )

        F#
Ela chegou às 6
    A#m
Sentou na 16
     G#m
E pediu whisky pra dois

   F#
Olhou pra mim
    A#m
Ergueu o copo
   G#m
E fez sinal de depois

   B               C#
Então eu me aproximei
  B              C#
Tropecei no meu medo
B              C#
Atenção na chegada
    B         C#
Esqueci a partida
  
    G#m
Ela é a que chegou
    B9
Ela é a que pediu a cerveja
     G#m                B9
Ela foi sem me dizer o nome

E eu fiquei só na mesa

    G#m
Ela é a que chegou
    B9
Ela é a que pediu a cerveja
     G#m                B9
Ela foi sem me dizer o nome

E eu fiquei só

[Final] G#m  B9  G#m  B9
        D#m  G#  B9  F#  A#m
00:00 / 00:00
Outros vídeos desta música
Repetir
Outros vídeos desta música
Composição de Natália Noronha
Colaboração e revisão:
  • Gabriel Chiminazzo
  • Francisco Comitre
  • jobia caxiado
17.049 exibições
    • ½ Tom
    • A
    • Bb
    • B
    • C
    • Db
    • D
    • Eb
    • E
    • F
    • F#
    • G
    • Ab
  • Adicionar à lista

    0 comentários

    Ver todos os comentários

    Conseguiu tocar?

    13 Tocaram 4 Ainda não

    Grave um vídeo tocando Mesa 16 e nos envie!

    Entre para oCifra Club PRO

    Tenha acesso a benefícios exclusivos no App e no Site

    • Chega de anúncios

    • Prioridade de compra em lançamentos

    • Mais recursos no app do Afinador

    • Atendimento Prioritário

    • Descontos nos produtos Cifra Club

    • Ajude a produzir mais conteúdo

    00:00 / 00:00

    Cifra Club Pro

    Aproveite o Cifra Club com benefícios exclusivos e sem anúncios
    Cifra Club Pro
    Aproveite o Cifra Club com benefícios exclusivos e sem anúncios
    OK