Cifra Club

Love You Till The End

The Pogues

Cifra: Principal
exibições 61.713
Tom: B
Intro 2x: B   E   B   E

B
I just want to see you
E
When you're all alone
B                             E
I just want to catch you, if I can
F#
I just want to be there
            E               B
When the morning light explodes
F#
On your face it radiates
    E
I cant escape
                    B
I love you till the end

(Intro 2x)

B
I just want to tell you nothing
E
You dont want to hear
B                        E
All I want is for you to say
F#
Why dont you just take me
           E             B
Where I've never been before
  F#
I know you want to hear me
               E
Catch my breath
                    B      E
I love you till the end
                    B      E
I love you till the end


Solo:

E|-------14------------------------------14---------------------|
B|-14-16----14-16--12-14-16--12----14-16----14-16--12-14-16--12-|
G|--------------------------------------------------------------|
D|--------------------------------------------------------------|
A|--------------------------------------------------------------|
E|--------------------------------------------------------------|

E|----------------------19-19-19--------14-14--------------------|
B|-14-14-14-16-17-16-14-----------------------17-17-16-14-16-----|
G|---------------------------------------------------------------|
D|---------------------------------------------------------------|
A|---------------------------------------------------------------|
E|---------------------------------------------------------------|

E|----------------------------|
B|14-14-14-16-17-16-14-16--12-|
G|-------------------------13-|
D|----------------------------|
A|----------------------------|
E|----------------------------|

              B      E
I love you till the end
                    B      E
I love you till the end

B
I just want to be there
E
When were caught in the rain
B                                 E
I just want to see you laugh not cry
F#
I just want to feel you
         E                  B
When the night puts on its cloak
F#
I'm lost for words dont tell me
      E
'Cause all I can say
                     B      E
I love you till the end
                     B      E
I love you till the end
                     B      E
I love you till the end
Acordes para:

    0 comentários

      mostrar mais comentários

      Conseguiu tocar?

      9tocaram0ainda não

      Grave um vídeo tocando Love You Till The End e mande pra gente!

      00:00 / 00:00
      outros vídeos desta música
      repetirqualidadeautomática
      Outro vídeos desta música
        00:00 / 00:00
        automática
        OK