Notificações Amigos pendentes

      Poison

      Were An American Band

      551 exibições
      Tom: G
      This is my first tab, mail any questions or corrections to *
      
      Listen to the song for timing
      
      Begining
      
      e|--------------------------------------------------------------------------|
      B|--------------------------------------------8-----------8-----------------|
      G|--5h7---5-777-5-777-5-777-5-777-5-777--7b9----r7-5-7b9----r7-5-5-------5-5|
      D|--5h7---5-777-5-777-5-777-5-777-5-777----------------------------7-5-7----|
      A|--------------------------------------------------------------------------|
      E|--------------------------------------------------------------------------|
      
      
      e|--------10-10-10-10-10-10-10-10-8|
      B|---------------------------------|
      G|--------7--7--7--7--7--7--7--7--5|
      D|7-5-7----------------------------|
      A|---------------------------------|
      E|---------------------------------|
      
      
      Verse
      
      e|--------------------------------------------------------------------------|
      B|--------------------------------------------------------------------------|
      G|------------------------------10-9----------------------------------------|
      D|-12-12---12-12--10-10-10--12--10-9-10-------------------------------------|
      A|-12-12---12-12--10-10-10--12--8--7-10-------------------------------------|
      E|-10-10---10-10--8--8--8---10-------8--------------------------------------|
      
      
      
      Pre Chorus
      
      e|----------------------------|
      B|----------------------------|
      G|-12-----------12------10-12-|
      D|-12-12-10-12--12-12---10-12-|
      A|-10-12-10-12--10-12---8--10-|
      E|----10-8--10-----10---------|
      
      
      Chorus
      
      e|--------------------------------------------------------------------------|
      B|--------------------------------------------------------------------------|
      G|--------------------------------------------------------------------------|
      D|-12-10---8-10-12----------------------------------------------------------|
      A|-12-10---8-10-12----------------------------------------------------------|
      E|-10-8----6-8--10----------------------------------------------------------|
      
      
      C.C.'s fill over second chorus
      
      e|-8b10-10-10r8-5-8b10r8-5---|
      B|---------------------------|
      G|-------------------------7-|
      D|---------------------------|
      A|---------------------------|
      E|---------------------------|
      
      
      Solo                                        (play this part alot really fast)
      
      e|----------------11-12-11-12-11-12-11-12b14---10-10-13p12p10h13p12p10------|
      B|/8-7-8-7------------------------------------------------------------------|
      G|---------7----------------------------------------------------------------|
      D|-----------7--------------------------------------------------------------|
      A|-------------5------------------------------------------------------------|
      E|--------------------------------------------------------------------------|
      
      
      e|-10-10p8------10-10p8------10---------------------------------------------|
      B|--------h10p8--------h10p8------------------------------------------------|
      G|--------------------------------------------------------------------------|
      D|--------------------------------------------------------------------------|
      A|--------------------------------------------------------------------------|
      E|--------------------------------------------------------------------------|
      

      Comentários 0

      140 .
      140 cancelar

      conseguiu tocar?

      covers

      Grave um vídeo tocando Were An American Band e mande pra gente!

      Ex.: http://www.youtube.com/watch?v=0IvSvIwGdwk
      ver covers de outras músicas »
      0:00 / 0:00

      Capítulos

        1 versão de violão dificuldade exibições contribuição e correção
        1 versão de guitarra dificuldade exibições contribuição e correção
        1 versão de cavaco dificuldade exibições contribuição e correção
        1 versão de teclado dificuldade exibições contribuição e correção
        play/pausefechar subir/descer velocidade
        6ª corda E5ª corda A4ª corda D3ª corda G2ª corda B1ª corda E
          acordes
          publicidade
          fechar
          ok