Cifra Club

Aprenda

Novo Dia

Ponto De Equilibrio

Tab de baixo: Principal
Riff 1

G|------------------------------------------------------------|
D|-------------------------10--10-10--------------------------|
A|----8--8-8----11--11-11--------------6-6--6-9-9-6-----------|
E|---------------------------------------------------6--6-6-6-|

Riff 2

G|------------------------------------------------------------|
D|-----------------------------------------8-8----------------|
A|----------------8-8----------6--6-9-6-9-------9-6-----------|
E|----6--6-9-6-9--------9-6-----------------------------------|
Composição de Hélio Bentes
Colaboração e revisão:
  • Adonis Basilio
4.736 exibições

0 comentários

Mostrar mais comentários

Conseguiu tocar?

2 Tocaram 0 Ainda não

Grave um vídeo tocando Novo Dia e mande pra gente!

00:00 / 00:00
outros vídeos desta música
repetir qualidade Automático
Outros vídeos desta música
00:00 / 00:00
Automático

Cifra Club Pro

Aproveite o Cifra Club com benefícios exclusivos e sem anúncios
Cifra Club Pro
Aproveite o Cifra Club com benefícios exclusivos e sem anúncios
OK