Cifra Club

Aprenda

Ponto de Equilíbrio

Ponto De Equilibrio

Tab de baixo: Principal
Intro
G ----------
D ----------
A ----------
E -19-19/7--

G -------------------------------------------------------------------
D ------------------------4----------12/-7-7------7----------4-4/5-4-
A ----------------4-5-5-5---5--7^9/12--------------------------------
E -7--5-7--5-7--7----------------------------5--5---5-7-5-7-7--------

"De que valem os dreads..."
G ------------------------------------------------------------------
D ----------------------------5----------4--------------------------
A ----------5----------5-7--7---7-5--5-5----------------------------
E -7--5-7-7---7--5-7-7----------------------------------------------


G ------------------------------------------------------------------
D ----------------------------5--------7-7(4)-----------------------
A ----------5----------5-7--7---7-5--5------------------------------
E -7--5-7-7---7--5-7-7----------------------------------------------

Refrão
G ------------------------------------------------------------------
D ------5------5-5-4-----4-4--4-7--7-9--9-7-5-4---------------------
A -7--7---7-5--------5----------------------------------------------
E ---------------------7--------------------------------------------


G ------------------------------------------------------------------
D -------5-----5--5-4------------------4----------------------------
A -7-7-7---7-5--------5---------------------------------------------
E ----------------------7-7--7-2-5-7-7---7--------------------------


"Sinta a música...Entre dentro dela" 
G ------------------------------------------------------------------
D ---5---4----------------------------------------------------------
A -7---7---5-5----------------5-------------------------------------
E -------------7-5-7--7-5-7-7---7-----------------------------------



_______________________________________________________
Contribuição: Adriano Marques Rocha(adrianoriddim@bol.com.br)
Composição de André Sampaio / Hélio Bentes
14.478 exibições

0 comentários

Ver todos os comentários

Conseguiu tocar?

2 Tocaram 0 Ainda não

Grave um vídeo tocando Ponto de Equilíbrio e nos envie!

00:00 / 00:00
outros vídeos desta música
repetir qualidade Automático
Outros vídeos desta música
00:00 / 00:00
Automático

Cifra Club Pro

Aproveite o Cifra Club com benefícios exclusivos e sem anúncios
Cifra Club Pro
Aproveite o Cifra Club com benefícios exclusivos e sem anúncios
OK