Lembranças

Porca Véia

Composição: Telmo de Lima Freitas
Tom: F
[Intro] F  C  Bb  C  F

E|----10-10----10-10-----10-8------|
B|-10-------10-------10------------|
G|---------------------------------|
D|---------------------------------|
A|---------------------------------|
E|---------------------------------|

E|---8-8---8-8---------------------|
B|-8-----8------8-10/11~-----------|
G|---------------------------------|
D|---------------------------------|
A|---------------------------------|
E|---------------------------------|

E|---------------------------------|
B|-11-11-11-10-10-10-8----10-8-----|
G|---------------------10----------|
D|---------------------------------|
A|---------------------------------|
E|---------------------------------|

E|---------------------------------|
B|--10-10-10-8-10-11-10-8----------|
G|------------------------10~------|
D|---------------------------------|
A|---------------------------------|
E|---------------------------------|

F                              C7
Quando as almas perdidas se encontram
                       F
Machucadas pelo desprazer
                  C7
Um aceno um riso apenas
                       F
Da vontade da gente viver
                            C7
São os velhos mistérios da vida
                         Bb
Rebenquiados pelo dia-a-dia

      F                   C7
Já cansados de tanta tristeza
                          F
Vão em busca de nova alegria 
      F                   C7
Já cansados de tanta tristeza
                          F
Vão em busca de nova alegria 

[Solo] F  C  Bb  C  F

F                          C7
E ao morrer desta tarde morena
                           F
Quando o sol despacito se vai
                                 C7
As lembranças tranqueiam com as águas
                        F
Passageiras do rio Uruguai
                          C7
E as guitarras eternas cigarras
                            Bb
Entre as flores dos velhos ipês

        F                    C7
Sempre vivas dormidas se acordam
                          F
Na lembrança da primeira vez

        Bb                 C7
Sempre vivas dormidas se acordam
                          F
Na lembrança da primeira vez
Página 1 / 1

Letras e título
Acordes e artista

resetar configurações
OK