Espiral

Porter

tom: D
Intro parte1 (esta es la parte del violonchelo)
E|--------------------------------|
B|--------------------------------|
G|--------------------------------|
D|-------2-----------------2------|
A|--------------------------------|
E|-3-----------2-----3-----------2|

Intro parte2
E|--------------------------------------------------------------|
B|-8-8-8-7-7-7-7-8-8-8-8h10-10-10-8-7--7h8h7h8h7---------7777777|
G|-x-----x-------x-----x---------------x---------7----7--x------|
D|-----------------------------------------------x----x---------|
A|--------------------------------------------------------------|
E|--------------------------------------------------------------|

G     Em          Bm
  Y estoy cayendo por un espiral
     G      Em         Bm
  y ahora sí, ya te mandé clonar
 G   Em         Bm
  Un grupo de doctores en Tijuana
  G         Em        Bm
  dijo- "ven yo te puedo ayudar"

  D       Dsus    D
  Oh Ohoh Ohoh Ohoh

 G   Em             Bm
  Perdón que ya no aguante tu partida
  G     Em         Bm
  pero es la perra soledad
 G   Em            Bm
  Sé bien que no pedí permiso
       G          Em          Bm
  pero sé muy bien  que tú lo harías también.

 G     Em         Bm              G
  Y empiezo a pensar, empiezo a pensar
      Em        Bm                    G
  que ya no hay más, sin ti ya no hay más,
      Em           Bm                    G
  sin ti ya no hay más, sin ti ya no hay más,
      Em           Bm  Em
  sin ti ya no hay más.

G     Em          Bm
  Y estoy cayendo por un espiral
     G      Em         Bm
  y ahora sí, ya te mandé clonar
 G   Em         Bm
  Un grupo de doctores en Tijuana
  G         Em        Bm
  dijo- "ven yo te puedo ayudar"

  D       Dsus    D
  Oh Ohoh Ohoh Ohoh

 G     Em         Bm              G
  Y empiezo a pensar, empiezo a pensar
      Em        Bm                       G
  sin ti ya no hay más, sin ti ya no hay más,
      Em   Bm         G       Em         Bm       G  Em
  sin ti no quiero ya, que empiece un proceso celular.

  Bm  C  D  G
  Ay  ayayay
  Em Bm  C  D  G
  ay ay  ayayay
  Em Bm  C  D  G
  ay ay  ayayay
  Em Bm  C  D  G
  ay ay  ayayay
  Em Bm  C  D  G
  ay ay  ayayay
  Em Bm  C  D  G
  ay ay  ayayay


  G  D  A  C D /   G  D  A  C D

 G     D               A             C    D  G    D    A    C  D
  Creo que ahora si me estoy estoy volviendo loco loco casi loco
 G     D               A             C    D  G    D    A    C  D
  Creo que ahora si me estoy estoy volviendo loco loco loco loco
 G     D               A             C    D  G    D    A    C  D
  Creo que ahora si me estoy estoy volviendo loco loco loco loco
Página 1 / 1

Letras e título
Acordes e artista

resetar configurações
OK