When Worlds Collide

Powerman 5000

Composição de: Powerman 5000
tom: E
   Afinando (de baixo para cima) C# G# C# G B E   
  
      Ambos o Violão Separam para o som de verso * mesmo * lânguido na gravação, mas  
   eles estão lá.   
  
   Verso Riff:   
   ==========================   
   E|--------------------   
   B|--------------------   
   G|--------------------   
   C#|-6-6-6-5-5-5-5-5-5-5   
   G#|-4-4-4-5-5-5-5-5-5-5   
   C#|-------5-5-5-5-5-5-5   
  
   Encrementando Verso:   
   com efeito de fase lento   
   ==========================   
   E|--------------   
   B|--------------   
   G|--------------   
   C#|--------------   
   G#|-4-4-4--------   
   C#|-------5-5-5-5   
  
   Chorus Riff:   
   ============   
   E|--------------------------------------------------   
   B|--------------------------------------------------   
   G|--------------------------------------------------   
   C#|-5-5-3-5-3-5---5-5-3-5-3-5---5-5-3-5-3-5-5-5-3-5-8   
   G#|-5-5-3-5-3-5---5-5-3-5-3-5---5-5-3-5-3-5-5-5-3-5-8   
   C#|-5-5-3-5-3-5---5-5-3-5-3-5---5-5-3-5-3-5-5-5-3-5-8   
  
Página 1 / 1

Letras e título
Acordes e artista

resetar configurações
OK