Cifra Club

Me Libertou

Pr. Lucas

Cifra: Principal (violão e guitarra)
tom: E
[Intro]  F#m  A  E  B

[Riff 1]

E|------------------------------------------|
B|------------------------------------------|
G|-------6-6-6-4-6---------6-6-6-4-6--------|
D|4-4-4------------4-4-4--------------------|
A|------------------------------------------|
E|------------------------------------------|

E|------------------------------------------|
B|------------------------------------------|
G|--------4-4-4-2-4--------4-4-4-2-4--------|
D|2-2-2-------------1-1-1---------------4---|
A|------------------------------------------|
E|------------------------------------------|

F#m                  A
Cordeiro de Deus que tira o pecado do mundo
E                           B
Ele não veio pra trazer condenação
F#m                    A
Cordeiro de Deus que tira o pecado do mundo
E                       B
Ele veio pra trazer a salvação

F#m
Para os cativos oh oh
A
É liberdade
E
Para os perdidos
B
Ele é a direção
F#m
Para os aflitos oh oh
A
É esperança
E
Para os enfermos
B
Ele é restauração

[Riff 1]

[Riff 2]

E|------------------------------------------|
B|------------------------------------------|
G|------------------------------------------|
D|------------------------------------------|
A|-----4-4-4-6-6-6-7-7----------------------|
E|---------------------7--------------------|

( D  A  E  B / D  A  C#m )

D        A
Oh oh oh oh oh
E
Jesus me libertou
B
Jesus me libertou
D           A
Oh Oh Oh Oh ôh ôh
C#m
Jesuss me libertooou
F#m
Nossa história começou
A
Quando o homem no jardim pecou
F#m
E o perfeito se contaminou
B
Quando o pecado entrou
Quando o pecado entrou
F#m
E o homem se perdeu desde então
A
Foi só maldade e destruição
F#m
Mas uma revolução chegou
B
Quando Jesus entrou
E
Quando Jesus entrou

[Riff 3]

E|------------------------------------------|
B|------------------------------------------|
G|------------------------------------------|
D|------------------------------------------|
A|---2-2-4-2-0------------------------------|
E|-------------2----------------------------|
00:00 / 00:00
Outros vídeos desta música
Repetir
Outros vídeos desta música
Compositor não encontrado.
Colaboração e revisão:
  • André Lima
4.952 exibições
    • ½ Tom
    • A
    • Bb
    • B
    • C
    • Db
    • D
    • Eb
    • E
    • F
    • F#
    • G
    • Ab
  • Adicionar à lista

    0 comentários

    Ver todos os comentários

    Entre para oCifra Club PRO

    Tenha acesso a benefícios exclusivos no App e no Site

    • Chega de anúncios

    • Prioridade de compra em lançamentos

    • Mais recursos no app do Afinador

    • Atendimento Prioritário

    • Descontos nos produtos Cifra Club

    • Ajude a produzir mais conteúdo

    00:00 / 00:00

    Cifra Club Pro

    Aproveite o Cifra Club com benefícios exclusivos e sem anúncios
    Cifra Club Pro
    Aproveite o Cifra Club com benefícios exclusivos e sem anúncios
    OK