Preparado

Preto No Branco

Composição de: Clóvis Pinho
tom: D
        D7M       C#m7       Bm7 F#7
O que o olho não viu, nem ouvido ouviu

  Riff 1
E|------------------|
B|------------------|
G|--------4-2-------|
D|----2-4------4----|
A|-33---------------|
E|------------------|

(Riff 1)           D7M  C#m7  Bm7  D/E
Ele tem prepa-----ra---------do
                   A7M     G7 F#7 (ou Riff 2)
Especialmente pra você
(Riff 1)            D7M  C#m7  Bm7    E
Ele tem traba-----lha---------do
                     A7M   G7 F#7 (ou Riff 2)
Com Cristo você vai vencer


(Riff 1)           D7M  C#m7  Bm7  D/E
Ele tem prepa-----ra---------do
                   A7M     G7 F#7 (ou Riff 2)
Especialmente pra você
(Riff 1)            D7M  C#m7  Bm7    E
Ele tem traba-----lha---------do
                     A7M   G7 F#7 (ou Riff 2)
Com Cristo você vai vencer

  Riff 2
E|------------------------------|
B|------------------------------|
G|-6/7/6---4/5/4-----3----------|
D|------------------------4-----|
A|-4/5/4---2/3/2-----1----------|
E|------------------------2-----|

 Riff 3
E|------------------------------|
B|------------------------------|
G|--6-2---4/2-------------------|
D|---------------4--------------|
A|------------------------------|
E|------------------------------|

D7M     C#m7      Bm7  D/E
O que o olho não viu, nem ouvido ouviu
               A7M  F#7sus  F#7  F#7sus  F#7
Ele tem pra você pre|------pa---ra------do
 D7M                        Bm7
Não importa qual a sua cor 
                     D/E
Se o sangue que ele derramou
     A7M               F#7sus  F#7 F#7sus  F#7
Foi por todos nós na cruz
       D7M       C#m7          Bm7            F#m7
Nessa vida há caminhos que ao homem parece legal
 D7M            C#m7            Bm7    Bm7   C#m7
Sem o autor da vida tudo acaba mal no final
 D7M           C#m7
Seja forte, corajoso
 F#7sus  F#7          C#m7  F#m7
Não temas, nunca desanime  não
D7M   C#m7    Bm7  D/E  A7M   A7M F#7
O melhor ele tem pra você

  Riff 1
E|------------------|
B|------------------|
G|--------4-2-------|
D|----2-4------4----|
A|-33---------------|
E|------------------|

(Riff 1)           D7M  C#m7  Bm7  D/E
Ele tem prepa-----ra---------do
                   A7M     G7 F#7 (ou Riff 2)
Especialmente pra você
(Riff 1)            D7M  C#m7  Bm7    E
Ele tem traba-----lha---------do
                     A7M   G7 F#7 (ou Riff 2)
Com Cristo você vai vencer

  Riff 4
E|------------------|
B|------------------|
G|-----------------2|
D|-------------2-4--|
A|-------2-3-4------|
E|-0-2-5------------|

D7M     C#m7      Bm7  D/E
O que o olho não viu, nem ouvido ouviu
               A7M  F#7sus  F#7  F#7sus  F#7
Ele tem pra você pre|------pa---ra------do
 D7M                        Bm7
Não importa qual a sua cor 
                     D/E
Se o sangue que ele derramou
     A7M               F#7sus  F#7 F#7sus  F#7
Foi por todos nós na cruz
       D7M       C#m7          Bm7            F#m7
Nessa vida há caminhos que ao homem parece legal
 D7M            C#m7            Bm7    Bm7   C#m7
Sem o autor da vida tudo acaba mal no final
 D7M           C#m7
Seja forte, corajoso
 F#7sus  F#7          C#m7  F#m7
Não temas, nunca desanime  não
D7M   C#m7    Bm7  D/E  A7M   A7M F#7
O melhor ele tem pra você

Riff 3
E|------------------------------|
B|------------------------------|
G|--6-2---4/2-------------------|
D|---------------4--------------|
A|------------------------------|
E|------------------------------|

(Riff 1)           D7M  C#m7  Bm7  D/E
Ele tem prepa-----ra---------do
                   A7M     G7 F#7 (ou Riff 2)
Especialmente pra você
(Riff 1)            D7M  C#m7  Bm7    E
Ele tem traba-----lha---------do
                     A7M   G7 F#7 (ou Riff 2)
Com Cristo você vai vencer

D7M     C#m7      Bm7  D/E
O que o olho não viu, nem ouvido ouviu
     A7M     F#7sus  F#7
Ele tem pra você
     A7M     F#7sus  F#7
Ele tem pra você
     A7M     F#7sus  F#7
Ele tem pra você
Página 1 / 1

Letras e título
Acordes e artista

resetar configurações
OK