John The Fisherman

Primus

Composição de: Les Claypool / Primus / Todd Huth
tom: G
intro

--------|--------|--------|--------|--------|--------|
--------|--------|--------|--------|--------|--------|
---4-5-6|---4-5-6|---4-5-6|---4-5-6|---4-5-6|---4-5-6|
---4-5-6|---4-5-6|---4-5-6|---4-5-6|---4-5-6|---4-5-6|
---2-3-4|---2-3-4|---2-3-4|---2-3-4|---2-3-4|---2-3-4|
--------|--------|--------|--------|--------|--------|

|---------|
|---------|
|-4-5-7-6-|
|-4-5-7-6-|
|-2-3-5-4-|
|---------|

Veses And Rest
--------|---------|----------|----------|------------|
--9-9---|--9---9--|---6------|--9----9--|----9---9---|
-10-10--|-10--10--|---7------|-10---10--|---10---10--|
--------|---------|----------|----------|------------|
--------|---------|----------|----------|------------|
--------|---------|----------|----------|------------|

------13------|
---14----14---|
--------------|
--------------|
--------------|
--------------|
Página 1 / 1

Letras e título
Acordes e artista

resetar configurações
OK