Cifra Club

Aprenda

John The Fisherman

Primus

Cifra: Versão 3 (violão e guitarra)
Já pensou em usar uma coleção de roupas do Cifra Club? Responda as perguntas abaixo e nos ajude nessa missão! →
tom: Db
standard tuning, E-e


                                         ^ = slide from lowest fret(s)
                                         h = hammer on
intro (drums and bass first)

------------------------------------------------------|
------------------------------------------------------|
----------------------------------------------------1-|
--5-6-7-x-5-6-7-x-5-6-7-x-5-6-7-x-5-6-7-----5-6-8-7---|
--3-4-5-x-3-4-5-x-3-4-5-x-3-4-5-x-3-4-5-----3-4-6-5---|
------------------------------------------------------|

intro 2
------------------------------------------^9--/19-----|
-^9--^9-----^9---^9--x-2~--^9--^9-----^9---10-/---18--|
--10--10-----10---10---3~---10--10-----10-------------|
------------------------------------------------------|
------------------------------------------------------|
------------------------------------------------------|
intro 2(ending)
----------------------------------------------10/--19-------------|
-^9--^9-----^9---^9--x-2~--^9--^9--------9----9-/----18-----------|
--10--10-----10---10---3~---10--11---3-6-8--3---------------------|
----------------------------------------------------------5-6-8-7-|{let ring
----------------------------------------------------------3-4-6-5-|
------------------------------------------------------------------|

--------/-18~--|
-----/-/--17~--|
----/-/--------|
-1/------------|
---------------|
---------------|
vers 1
------------------------------------------^9--/19-----|
-^9--^9-----^9---^9--x-2~--^9--^9-----^9---10-/---18--|
--10--10-----10---10---3~---10--10-----10-------------|x2
------------------------------------------------------|
------------------------------------------------------|
------------------------------------------------------|

------------------------------------------^9--/19-----|
-^9--^9-xxx-^9---^9--x-2~--^9--^9-----^9---10-/---18--|
--10--10-----10---10---3~---10--10-----10-------------|
------------------------------------------------------|
------------------------------------------------------|
------------------------------------------------------|

----------------------------------------------10/--19----|
-^9--^9-xxx-^9---^9--x-2~--^9--^9--------9----9-/----18--|
--10--10-----10---10---3~---10--11---3-6-8--3------------|
---------------------------------------------------------|
---------------------------------------------------------|
---------------------------------------------------------|
chorus 1
------------------^9----------------------^9---------|
-------------------9-----------------------9---------|
-------------------7-----------------------7---------|
--5-6-8-7-5-6-7--------5-6-7--8-7-5-6-7--------5-6-7-|
--3-4-6-5-3-4-5--------3-4-5--6-5-3-4-5--------3-4-5-|
-----------------------------------------------------|

-------------^9-----------(-------------------13---------)
--------------9-----------(-------------------12---------)
--------------7---------6-(-------------------12---------)
-8-7-5-6-7--------5-6-7---(5-6-8-7-5-6-7--3333-----5-6-7-)x4
-6-5-3-4-5--------3-4-5---(3-4-6-5-3-4-5--3333-----3-4-5-)
--------------------------(------------------------------)
solo 1
----------------------------------------|
----------------------------------------|
-------6--------------------------------|
-5-6-7---5-6-8-7(let ring)--999999-2-4--|
-3-4-5---3-4-6-5-------------------2-3--|
----------------------------------------|
solo 2
-----------------------------|
-----------------------------|
-----------------------------|
-8-7(let ring)--------8----3-|
-6-5-----------5h6h7h8--7--1-|
-----------------------------|
solo 3
----------------------------------------2h3h4-^/20-|
-----------------------------------2h3h4--------19-|
---------------------9-----6-----------------------|
-5-6-8-7(let ring)---7-----4-----------------------|
-3-4-6-5-----------5-----2-------------------------|
---------------------------------------------------|
vers 2
------------------------------------------^9--/19-----|
-^9--^9-----^9---^9--x-2~--^9--^9-----^9---10-/---18--|
--10--10-----10---10---3~---10--10-----10-------------|x2
------------------------------------------------------|
------------------------------------------------------|
------------------------------------------------------|

------------------------------------------^9--/19-----|
-^9--^9--9--^9---^9--x-2~--^9--^9-----^9---10-/---18--|
--10x-10x9---10---10---3~---10--10-----10-------------|
------------------------------------------------------|
------------------------------------------------------|
------------------------------------------------------|

----------------------------------------------10/--19----|
-^9--^9-xxx-^9---^9--x-2~--^9--^9--------9----9-/----18--|
--10--10-----10---10---3~---10--11---3-6-8--3------------|
---------------------------------------------------------|
---------------------------------------------------------|
---------------------------------------------------------|
chorus 2
------------------^9----------------------^9---------|
-------------------9-----------------------9---------|
-------------------7-----------------------7---------|
--5-6-8-7-5-6-7--------5-6-7--8-7-5-6-7--------5-6-7-|
--3-4-6-5-3-4-5--------3-4-5--6-5-3-4-5--------3-4-5-|
-----------------------------------------------------|

-------------^9----------------------^9---------|
--------------9-----------------------9---------|
--------------7-----------------------7---------|
-8-7-5-6-7--------5-6-7--8-7-5-6-7--------5-6-7-|x2
-6-5-3-4-5--------3-4-5--6-5-3-4-5--------3-4-5-|
------------------------------------------------|

-------------^9-------------------|
--------------9---------6---------|
-8-7-5-6-7----7---5-6-7---5-6-8-7-|
-6-5-3-4-5--------3-4-5---3-4-6-5-|
----------------------------------|
----------------------------------|
ending
------------------------------------------------|
------------------------------------------------|
--5-6-7--5-6-7--5-6-7--5-6-7--5-6-7-----5-6-8-7-|
--5-6-7--5-6-7--5-6-7--5-6-7--5-6-7-----5-6-8-7-|
--3-4-5--3-4-5--3-4-5--3-4-5--3-4-5-----3-4-6-5-|
------------------------------------------------|
thanks for viewing
Composição de Les Claypool / Primus / Todd Huth
241 exibições
    • ½ Tom
    • A
    • Bb
    • B
    • C
    • Db
    • D
    • Eb
    • E
    • F
    • F#
    • G
    • Ab
  • Adicionar à lista

    0 comentários

    Ver todos os comentários

    Conseguiu tocar?

    0 Tocaram 0 Ainda não

    Grave um vídeo tocando John The Fisherman e nos envie!

    00:00 / 00:00
    Outros vídeos desta música
    Repetir Qualidade Automático
    Outros vídeos desta música
    00:00 / 00:00
    Automático

    Cifra Club Pro

    Aproveite o Cifra Club com benefícios exclusivos e sem anúncios
    Cifra Club Pro
    Aproveite o Cifra Club com benefícios exclusivos e sem anúncios
    OK