Cifra Club

Aprenda

Mama Didnt Raise No Fool

Primus

Cifra: Principal (violão e guitarra)
tom: A
Album: Antipop
Author: madbasslover
E-mail: BuddyP*

This probably isn't 100% accurate, since it's my first tab and I'm not good at tabbing 
anyways, but it will hopefully get you going in the right direction. The song is actually 
on a 7-string I think, but if you don't have one, you can just down tune your 6-string.

this part is played all through the verse and chorus:
C#|--------------------------------||
G#|--------------------------------||
E |--------------------------------||
B |--------------------------------||
F#|--------------------------------||
B |-2--2-2-5-2--X-2--2-5-2---------||

After the chorus, there's a weird guitar bit in the part where Les is saying "mama 
raise no fool" that I wasn't able to tab. It's probably mostly improvisation anyways.

And this is the part that comes after the aforementioned part:
C#|--------------------------------||
G#|--------------------------------||
E |--------------------------------||
B |-2--X-X-3-X-2-X-0-2-3-----------||
F#|-2--X-X-3-X-2-X-0-2-3-----------||
B |-2--X-X-3-X-2-X-0-2-3-----------||

C#|--------------------------------||
G#|--------------------------------||
E |--------------------------------||
B |-2--X-X-3-X-2-X-2-2-X-3---------||
F#|-2--X-X-3-X-2-X-2-2-X-3---------||
B |-2--X-X-3-X-2-X-2-2-X-0---------||

There ya go. Hopefully it wasn't too bad of a first attempt. Please rate it. Let me know 
I suck or not. Or comment on how ironic it is that someone whose username is 
submitted a guitar tab. heh.

Anyways, if you have questions or comments, feedback can be sent to the email address I 
above, or you can just PM me here on UG.
Composição de Primus / Tom Morello
238 exibições
    • ½ Tom
    • A
    • Bb
    • B
    • C
    • Db
    • D
    • Eb
    • E
    • F
    • F#
    • G
    • Ab
  • Adicionar à lista

    0 comentários

    Ver todos os comentários

    Conseguiu tocar?

    0 Tocaram 0 Ainda não

    Grave um vídeo tocando Mama Didnt Raise No Fool e nos envie!

    00:00 / 00:00
    outros vídeos desta música
    repetir qualidade Automático
    Outros vídeos desta música
    00:00 / 00:00
    Automático

    Cifra Club Pro

    Aproveite o Cifra Club com benefícios exclusivos e sem anúncios
    Cifra Club Pro
    Aproveite o Cifra Club com benefícios exclusivos e sem anúncios
    OK