To Defy The Laws Of Tradition

Primus

Composição de: Larry LaLonde / Les Claypool / Tim Herb Alexander
tom: F#
Album: Frizzle Fry


before and after verse thing
----------------------------------------------------------------|
----------------------------------------------------------------|
----9999~--999--777---xxx--/6666-xx-7-6---66--\66-6~-6~--xx-7-6-|  
----------------------------------------------------------------|
----------------------------------------------------------------|
----------------------------------------------------------------|

During verse
----------------------------------------------------------------|
----------------------------------------------------------------|
----xx--7-6-xx-\66-xx-6~-6~-xx-\666-xx--7b-6--------------------|
----------------------------------------------------------------|
----------------------------------------------------------------|
----------------------------------------------------------------|

Intro to the song and end of song
----------------------------------------------------------------|
----------------------------------------------------------------|
----7---8----9--------------------------------------------------|
----7---8----9--------------------------------------------------|
----5---6----7--------------------------------------------------|
----------------------------------------------------------------|

there is also stuff he does during the rest(the begining and the
"to defy the laws of tradition parts") and he uses a whammy bar
and i dont have one, and he does harmonix on the 12th fret of the
B and E string. I also havent taken the time to figure out the solo.
The song isnt to hard.
Página 1 / 1

Letras e título
Acordes e artista

resetar configurações
OK