Cifra Club

Away from me

Puddle Of Mudd

Cifra: Principal (violão e guitarra)
tom: Ab
A música começa com um solo

Solo(com batida de cima para baixo)

E|-------------------------------------------------|
B|-------------------------------------------------|
G|-----------------6-6-----------------------9-9-8-|
D|-8-8-8-8--8-8-8-8-8-8-9-8-8-8-8-8--8-8-8--8-8-8--|
A|-------------------------------------------------|
E|-------------------------------------------------|

E|-------------------------------------------------|
B|-------------------------------------------------|
G|-----------------6-6-----------------------------|
D|-8-8-8-8--8-8-8-8-8-8-9-8-8-8-8-8--8-8-8--8-8----|
A|-------------------------------------------------|
E|-------------------------------------------------|

Agora começa e base e continua o solo(na 2ª guita)

    A#     C#    E ( o som de E vai morrendo sozinho) 


O verso é apenas com o solo

1ª Estrofe

Look at me now 
Just sittin here by myself
And I think you found someone else
Now I'm gonna have to find 
A way to put the bottle down
And why can't you see
That I'm drowning in a pool of misery

Refrão

   Bb      E         Db
E|---------------------------|
B|---------------------------|
G|------9-9-9-9--6-6-6-6-6-6-|
D|-8-8--9-9-9-9--6-6-6-6-6-6-|2X
A|-8-8--7-7-7-7--4-4-4-4-4-4-|
E|-6-6-----------------------|


Bb           E
I'm always afraid     
            Db        
That you're gone
          Bb          
Away from me             
             E
I'm always afraid
            Db       
That you're lost in somebody

Bb           E
I'm always afraid     
            Db        
That you're gone
          Bb          
Away from me                 
             E
I'm always afraid
             Db       
That you're lost 

Agora volta o solo:

2ª Estrofe

So here I am 
I wanna be by myself
And I think you're fucking someone else
now im gonna have to find a way
To take the knife out of my back
And how could you leave me
Stranded in a closet full of bones

3ª Estrofe
   
     Bb      Db      Ab     Eb
E|--------------------------------|
B|--------------------------------|
G|----------6-6-6---------8-8-8-8-|
D|-8-8-8-8--6-6-6--6-6-6--8-8-8-8-|
A|-8-8-8-8--4-4-4--6-6-6--6-6-6-6-|
E|-6-6-6-6---------4-4-4----------|

Bb              Db            
Maybe you could let me stay
Ab             Eb               
Maybe just for one more day
Bb        Db                Ab     Eb
You could help me stay the same
Bb                 Db
Maybe things won't ever change
Ab              Eb  
Maybe we could taste the rain
Bb        Eb               Ab      Eb
You could push me out the way

Agora muda a sequencia:

       Db              C
E|------------------------------|
B|------------------------------|
G|-6-6-6-6-6-6-6--5-5-5-5-5-5-5-|
D|-6-6-6-6-6-6-6--5-5-5-5-5-5-5-|
A|-4-4-4-4-4-4-4--3-3-3-3-3-3-3-|
E|------------------------------|
                                                
E|------------------------------------|
B|------------------------------------|
G|-6-6-6-6-6-6-6-----------8-8-8-8----|
D|-6-6-6-6-6-6-6--8-8-8-8--8-8-8-8--8-|
A|-4-4-4-4-4-4-4--8-8-8-8--6-6-6-6--8-|
E|----------------6-6-6-6-----------6-|


Db             
Now I sit here by myself
C
Think about somebody else
Db                     Ab      Eb       Bb          
How could you let them take you away from me

Agora começa de novo o solo:

There's somebody else
There's somebody else!

Refrão...

Depois do refrão ele começa a gritar:
"I'm aways afraid,I'm aways afraid...",7 vezes.
Nessa parte, o arranjo dos acordes é igual a do refrão.

Bb         E 
I'm aways afraid
           Db
I'm aways afraid

I'm aways afraid
             Bb
I'm aways afraid
           E
I'm aways afraid
           Db
I'm aways afraid

I'm aways afraid!!!!

Logo em seguida, a música termina assim, com apenas 1ª batida
em cada acorde:

  Bb  E   Db
Away from me!
Composição de Puddle Of Mudd
Colaboração e revisão:
  • Luiz Souza
10.418 exibições
    • ½ Tom
    • A
    • Bb
    • B
    • C
    • Db
    • D
    • Eb
    • E
    • F
    • F#
    • G
    • Ab
  • Adicionar à lista

    0 comentários

    Ver todos os comentários

    Conseguiu tocar?

    2 Tocaram 0 Ainda não

    Grave um vídeo tocando Away from me e nos envie!

    00:00 / 00:00
    Outros vídeos desta música
    Repetir Qualidade Automático
    Outros vídeos desta música
    00:00 / 00:00
    Automático

    Cifra Club Pro

    Aproveite o Cifra Club com benefícios exclusivos e sem anúncios
    Cifra Club Pro
    Aproveite o Cifra Club com benefícios exclusivos e sem anúncios
    OK