Cifra Club

Piss It All Away

Puddle Of Mudd

Cifra: Principal (violão e guitarra)
tom: E
Come Clean

Acoustic gtr 1:

Bb Bb Bb Bb Eb Eb

gtr. 2

Eb:
Eb Ab Db Gb Bb Eb

Intro: let ring

e-----------------------------------------------------------------
b-----------------------------------------------------------------
g-----------------------------------------------------------------
d---2-------------------------------------------------------------
a---2-------------------------------------------------------------
e---0-------------------------------------------------------------

E5 let ring

gtr. 1

e-7---7--7-7---7-7---7-7---7-7-7-7-7-7---7--7-7---7-7---7-7-7-7-7-
e-0---0--0-0---0-0---0-0---0-0-0-0-0-0---0--0-0---0-0---0-0-0-0-0-
b-7---7--7-7---7-7---7-7---7-7-7-7-7-7---7--7-7---7-7---7-7-7-7-7-
b-0---0--0-0---0-0---0-0---0-0-0-0-0-0---0--0-0---0-0---0-0-0-0-0-
b-0---0--0-0---0-0---0-0---0-0-0-0-0-0---0--0-0---0-0---0-0-0-0-0-
b-5----------------------------------5----------------------------

e-------------------------------------------
e19----17---16h17p16----14h15p14-12--12-----
b-0---0-0----------0-----------0--0---0-----
b-0---0-0----------0-----------0--0---0-----
b-0---0-------------------------------------   x2
b-------------------------------------------

Fig. 1

e---------------------------------------------------
e-------0--0--0--0--------0--0--0--0------0----0----
b-------0--0--0--0--------0--0--0--0------0----0----
b-------0--0--0--0--------0--0--0--0------0----0----
b-------0--0--0--0--------0--0--0--0------0----0----
b-10---10-10-10-10---11--11-11-11-11--12-12---12----

e-7---7-7-7--7-7--7-7-6-6-6-6-6-6-7---7-7-7--7-7--7-7-6-6-6-6-6-6-
e-0---0-0-0--0-0--0-0-0-0-0-0-0-0-0---0-0-0--0-0--0-0-0-0-0-0-0-0-
b-0---0-0-0--0-0--0-0-0-0-0-0-0-0-0---0-0-0--0-0--0-0-0-0-0-0-0-0-
b-0---0-0-0--0-0--0-0-0-0-0-0-0-0-0---0-0-0--0-0--0-0-0-0-0-0-0-0-
b-0---0-0-0--0-0--0-0-0-0-0-0-0-0-0---0-0-0--0-0--0-0-0-0-0-0-0-0-
b-5---5-5-5--5-5--5-5-5-5-5-5-5-5-5---5-5-5--5-5--5-5-5-5-5-5-5-5-

Verses/Chorus: Fig. 1

Interlude:

gtr. 2

e-0------------0-0----------0---0-0--0---0-0--0-3--3-3-3-3-3-3-3-3
b-0------------0-0----------0---0-0--2---2-2--2-3--3-3-3-3-3-3-3-3
g-1------------1-1----------1---1-1--2---2-2--2-0--0-0-0-0-0-0-0-0
d-2---x-x--x-x-2-2--x-x-x-x-2---2-2--2---2-2--2-0--0-0-0-0-0-0-0-0
a-2---x-x--x-x-2-2--x-x-x-x-2---2-2--0---0-0--0-2--2-2-2-2-2-2-2-2
e-0---x-x--x-x-0-0--x-x-x-x-0---0-0-------------3--3-3-3-3-3-3-3-3

gtr. 3

e-----------------------------------------------------------------
b-----------------------------------------------------------------
g-9/11-11-11---x11/13-13-13-13--9--9------------------------------
d-x--x--x--x---x-x--x--x--x--x--x--x------------------------------
a-7/-9--9--9---x-9/11-11-11-11--7--7------------------------------
e------------0---------------0------------------------------------

gtr. 2

e-0------------0-0----------0---0-0--0---0-0--0-3--3-3-3-3-3-3-3-3
b-0------------0-0----------0---0-0--2---2-2--2-3--3-3-3-3-3-3-3-3
g-1------------1-1----------1---1-1--2---2-2--2-0--0-0-0-0-0-0-0-0
d-2---x-x--x-x-2-2--x-x-x-x-2---2-2--2---2-2--2-0--0-0-0-0-0-0-0-0
a-2---x-x--x-x-2-2--x-x-x-x-2---2-2--0---0-0--0-2--2-2-2-2-2-2-2-2
e-0---x-x--x-x-0-0--x-x-x-x-0---0-0-------------3--3-3-3-3-3-3-3-3

gtr. 3
e-----------------------------------------------------------------
b-----------------------------------------------------------------
g-9/1111111--11/14-14-14-14-13-13-13------------------------------
d-x-x-x-x-x---x--x--x--x--x--x--x--x------------------------------
a-7/9-9-9-9---9/12-12-12-12-11-11-11------------------------------
e-----------0-----------------------------------------------------

Outro: x3

e-5--5--5-5--5--5-5-5-5---5-5-5-5-5---5-5-5-5-5---5-5-5--5-5---5--
e-0--0--0-0--0--0-0-0-0---0-0-0-0-0---0-0-0-0-0---0-0-0--0-0---0--
b-0--0--0-0--0--0-0-0-0---0-0-0-0-0---0-0-0-0-0---0-0-0--0-0---0--
b-0--0--0-0--0--0-0-0-0---0-0-0-0-0---0-0-0-0-0---0-0-0--0-0---0--
b-0--0--0-0--0--0-0-0-0---0-0-0-0-0---0-0-0-0-0---0-0-0--0-0---0--
b-0--0--0-0--0--0-0-0-0---0-0-0-0-0---0-0-0-0-0---0-0-0--0-0---0--

e-5-5-5-5--5-5-5-5--5-5-5-5--0------------------------------------
e-5-5-5-5--5-5-5-5--5-5-5-5--0------------------------------------
b-5-5-5-5--5-5-5-5--5-5-5-5--0------------------------------------
b-0-0-0-0--0-0-0-0--0-0-0-0--0------------------------------------
b-0-0-0-0--0-0-0-0--0-0-0-0--0------------------------------------
b-0-0-0-0--0-0-0-0--0-0-0-0--x------------------------------------


that's about all

trevor jones
*
00:00 / 00:00
Outros vídeos desta música
Repetir
Outros vídeos desta música
Composição de Scantlin
564 exibições
    • ½ Tom
    • A
    • Bb
    • B
    • C
    • Db
    • D
    • Eb
    • E
    • F
    • F#
    • G
    • Ab
  • Adicionar à lista

    0 comentários

    Ver todos os comentários

    Entre para oCifra Club PRO

    Tenha acesso a benefícios exclusivos no App e no Site

    • Chega de anúncios

    • Prioridade de compra em lançamentos

    • Mais recursos no app do Afinador

    • Atendimento Prioritário

    • Descontos nos produtos Cifra Club

    • Ajude a produzir mais conteúdo

    00:00 / 00:00

    Cifra Club Pro

    Aproveite o Cifra Club com benefícios exclusivos e sem anúncios
    Cifra Club Pro
    Aproveite o Cifra Club com benefícios exclusivos e sem anúncios
    OK