Ao Menos Em Sonhos

Pull Down

tom: Db
Intro: (F#,C#)
Afinação drop D

E|---------------------------------|
B|-------------4-----4~------4~----|
G|---------------6------6------6~--|
D|--4-4-4~---------6------6--------|
A|--4-4-4~---4~--------------------|
D|--4-4-4~-------------------------|

   Vá lá deita, não pense em nada

   O sono já vem
  
   Amanhã acordar, com tudo no lugar

   Como deve estar

   Talvez olhe para o lado e me sinta lá

   Talvez ganhe um beijo ao acordar

Repete intro:(F#,C#)

E|------------------4--------------|
B|-------------4-------------------|
G|---------------6-----6-----------|
D|--4-4-4~---------------6---------|
A|--4-4-4~---4~--------------------|
D|--4-4-4~-------------------------|

   Vai, você precisa descansar

   tá tarde e temos o dia todo

   para pensar em como será

   conversar sobre nós

   quero te contar o quer deixei de falar
                               C#
   sobre meus medos, que vão passar
              C#
   Que vão passar

D#                   F    F#              D#
   nos encontraremos em sonhos e tudo ficará bem
             F    F#
   ao menos em sonhos..

Refrão
              A#
   Enquanto dormi
         G#
   Tão longe
   F#        C#
   Tento esquecer
        A#
   E esconder de mim
   G#         F#           C#
   Mesmo a verdade que me faz sofrer
G# A# G# A# G#        D D# D D# D
   Talvez essa história não tenha 
              C#   G# A# G# A# G#
   Um final feliz, mas o que
           D D# D D# D
   Importa agora é que
       F#             C#
   só você me faz sorrir....

Riff:(02|13)

E|-------------------------------------------------|   
B|-------------------------------------------------|
G|-------------------------------------------------|
D|----3---1---------------------------3------------|
A|--4---4---4-4--3-3h4-3------6---5-------6---5h6--|
D|----------------6------6-3~---3~--3~--3~--3~-----|

E|---------------|
B|---------------|
G|---------------|
D|----3---1------|
A|--4---4---4-4--|
D|---------------|

Dae aqui já entra
A distorção:

E|----------------------------------|
B|----------------------------------|
D|----------------------------------|
G|--3-3------------333--33--3333----|
A|--3-3--3h4-3-----333--33--3333----|
D|--3-3-------6----333--33--3333----|
(OBS)|||essa parte não é tocada
Do jeito que esta aqui...escute e
Pegue o tempo certo|)

E|----------------------------------------------------|   
B|----------------------------------------------------|
G|----------------------------------------------------|
D|-------------------6-6----------333-----33----3333--|   
A|-X-X-8--X-6--X-4---4-4-3h4-3----333-----33----3333--|
D|-------------------6-6-------6--333-----33----3333--|

E|----------------------------------------------------|   
B|----------------------------------------------------|
G|----------------------------------------------------|
D|-------------------6-6----------333-----33----3333--|   
A|-X-X-8--X-6--X-4---4-4-3h4-3----333-----33----3333--|
D|-------------------6-6-------6--333-----33----3333--|

E|----------------------------------------------------|   
B|----------------------------------------------------|
G|----------------------------------------------------|
D|-------------------6-6----------333-----33----3333--|   
A|-X-X-8--X-6--X-4---4-4-3h4-3----333-----33----3333--|
D|-------------------6-6-------6--333-----33----3333--|

E|----------------------------------------------------|   
B|----------------------------------------------------|
G|----------------------------------------------------|
D|-------------------6-6----------333-----33----3333--|   
A|-X-X-8--X-6--X-4---4-4-3h4-3----333-----33----3333--|
D|-------------------6-6-------6--333-----33----3333--|

Guita1
E|----------------------------------------------------|   
B|----------------------------------------------------|
G|----------------------------------------------------|
D|-------------------6-6----------333-----33----3333--|   
A|-X-X-8--X-6--X-4---4-4-3h4-3----333-----33----3333--|
D|-------------------6-6-------6--333-----33----3333--|

Guita2 juntas
E|----------------------------------------------------| 
B|----------------------------------------------------|
G|----------------------------------------------------|
D|-------------------x-x---------------333---33--3333-|
A|-X-X-8--X-10-x-11--x-x-11h13-11-10---333---33--3333-|
D|-------------------x-x---------------333---33--3333-|

D#                       F#              D#
   nos encontraremos em sonhos e tudo ficará bem
                 F#
   ao menos em sonhos..

Repete o refrão:

              A#
   Enquanto dormi
         G#
   Tão longe
   F#        C#
   Tento esquecer
        A#
   E esconder de mim
   G#         F#           C#
   Mesmo a verdade que me faz sofrer
G# A# G# A# G#        D D# D D# D
   Talvez essa história não tenha 
              C#   G# A# G# A# G#
   Um final feliz, mas o que
           D D# D D# D
   Importa agora é que
       C#
   só você me
             A#  G#  F#  C#
   Faz sorrir...
             A#  G#  F#  C#
   Faz sorrir...

Riff do final.. (A# A# G# A#)
Repete (2x)     (G# G# F# G#)
                (F# F# F F# F# C#)
Página 1 / 1

Letras e título
Acordes e artista

resetar configurações
OK