Cifra Club

Aprenda

Ninguen tem culpa (guitar solo)

Pull Down

Cifra: Principal (violão e guitarra)
tom: F
Base sem distorção (3x):
    F - C - D - Bb 
e|------------------|
B|------------------|
G|-10---5---7---3---|
D|--x---x---x---x---|
A|--8---3---5---1---|
E|------------------|

Guitarra 2 (Solo): 3x

e|--8-8-8-8-8-8-8-8--6-6-6-6-6-6-6-6--5-5-5-5-5-5-8-6-5--5-5-5-6-6-|
B|-----------------------------------------------------------------|

=============================================================

REFRÃO (2x)
"..tente compreender"
e|-----1~-----------|
B|-----3~-----------|
G|-----2~-----------|
D|-----0~-----------|
A|------------------|
E|------------------|

"..posso sorrir e te ver feliz"
e|------------------|
B|------------------|
G|-----3------------|
D|-----3------------|
A|-----1------------|
E|------------------|

Guitarra 2 (Solo):

"..posso sorrir"
e|--------------------------------------|
B|------10----11--10---13--11--10---13--|
G|---10----10---------------------------|
D|--------------------------------------|
A|--------------------------------------|
E|--------------------------------------|

"...como posso"
e|----------------------------------------|
B|---13-11-10----10----11-10---13-11-10---|
G|------------10----10--------------------|
D|----------------------------------------|
A|----------------------------------------|
E|----------------------------------------|

=============================================================

Base (2x)
Solo (2x)
Refrão (4x) (distorção)

=============================================================

FINAL:
"Nem sempre meu sorriso.." (4x - até o final)
e|------------------|   e acaba em: |-------|
B|------------------|                  |-------|
G|---------3---3----|                  |-------|
D|-3---5---3---3----|                  |---3---|
A|-3---5---1---1----|                  |---3---|
E|-1---3------------|                  |---1---|

Solo (4x - até o final, acompanhando a base)
"Nem sempre meu sorriso.."
e|---------------------------------------------------|
B|---------------------------------------------------|
G|---------------------------------------------------|
D|---3/5--3—3/7-7-7-7--5-5-5-3/5—3333333........-----|
A|---------------------------------------------------|
E|---------------------------------------------------|

=============================================================

RESUMO:

Base    3x  
Refrão  2x  
Base    2x
Refrão  4x
Final   4x 

=============================================================


Letra: 

Nem tudo está tão bem 
Não posso enganar você 
Estou sempre triste, nem sei por que 
Mas prefiro sorrir 
Do que entristecer alguém 
O problema sou eu, tente compreender 

Mesmo sofrendo 
Com meus mil defeitos 
Tenho que me manter feliz 
Você não tem culpa 
Do meu sofrimento 
Não pense assim, eu sei o que fazer 

Refrão: 
Posso sorrir e te ver feliz 
(Como) Posso sorrir e mentir pra mim 

Ponte: 
Nem sempre meu sorriso é verdadeiro (Não posso enganar você) 
Não tenho culpa desse sentimento (Com meus mil defeitos) 
Pode ter certeza que é meu medo (Ninguém tem culpa) 
De te fazer sofrer com meu jeito (de ser) (O problema sou eu, tente compreender) 
Compositor não encontrado.
Colaboração e revisão:
  • Eric Marchi
3.855 exibições
    • ½ Tom
    • A
    • Bb
    • B
    • C
    • Db
    • D
    • Eb
    • E
    • F
    • F#
    • G
    • Ab
  • Adicionar à lista

    0 comentários

    Ver todos os comentários

    Conseguiu tocar?

    0 Tocaram 0 Ainda não

    Grave um vídeo tocando Ninguen tem culpa (guitar solo) e nos envie!

    00:00 / 00:00
    Outros vídeos desta música
    Repetir Qualidade Automático
    Outros vídeos desta música
    00:00 / 00:00
    Automático

    Cifra Club Pro

    Aproveite o Cifra Club com benefícios exclusivos e sem anúncios
    Cifra Club Pro
    Aproveite o Cifra Club com benefícios exclusivos e sem anúncios
    OK