Cifra Club

Aprenda

O Gosto Amargo Em Minha Boca São Lágrimas

Pull Down

Cifra: Principal (violão e guitarra)
tom: G
INTRO (x4):

e|-----------------------------------------|
B|---------------7-----7------7------------|
G|-5~---7~-----7---7--------7---7---7---5~-|
D|-5~---7~---5-------5-----5--------7---5~-|
A|-3~---5~---------------7----------5---3~-|
E|-----------------------------------------|

SOLO:
 e|---------------------------------------|
 B|--5---5---5-------7h8-7---7---7---7----|
 G|7---7---7---7---7-------7---7---7---7--|
 D|---------------------------------------|
 A|---------------------------------------|
 E|---------------------------------------|

 e|-10-8-7-7h8-7--------------------------|
 B|---------------10-8--10-8-7-8-7--------|
 G|---------------------------------------|
 D|---------------------------------------|
 A|---------------------------------------|
 E|---------------------------------------|

================================================================

Base (x2):
"Tudo seria diferente"
e|----------------------------------------------|
B|--------------------7-----7------7------------|
G|-5-5-5---7-7-7----7---7--------7---7---7---5~-|
D|-5-5-5---7-7-7--5-------5-----5--------7---5~-|
A|-3-3-3---5-5-5--------------7----------5---3~-|
E|----------------------------------------------|
   xxxxx   xxxxx
 
Obs.: x = abafado

================================================================

Refrão (x2):
"..nada faz parar"
e|------------------|    e pra sair do refrão:   e|-----------------|
B|------------------|                           B|-----------------|
G|-5---7---2---5----|                           G|-5-5-5-5---7~----|
D|-5---7---2---5----|                           D|-5-5-5-5---7~----|
A|-3---5---0---3----|                           A|-3-3-3-3---5~----|
E|------------------|                           E|-----------------|
                                                       x x

================================================================

Intro   x2
Base    x2
Refrão   x2

================================================================

Ponte:

Depois do refrão faz a saída mais uma vez e depois mais outras duas vezes assim ó:
e|------------------|
B|------------------|
G|-7-7---12-12--11~-|
D|-x-x----x--x--x---|
A|-5-5---10-10--9~--|
E|------------------|

================================================================

Parte Quebrada (x2):
e|-----------------------------------------------|
B|-----------------------------------------------|
G|-5-x-5-x-5-x-5---7-x-7-x-7-x-7---2-2---4h5-5---|
D|-5-x-5-x-5-x-5---7-x-7-x-7-x-7---2-2---4h5-5---|
A|-3-x-3-x-3-x-3---5-x-5-x-5-x-5---0-0---2h3-3---|
E|-----------------------------------------------|

Obs.: h = ligação

================================================================

Refrão (x4)

================================================================

Final:
e|-------------------------------------------------|
B|-------------------------------------------------|
G|-5-x-5-x-5-x-5---7-x-7-x-7-x-7---5-5-5-5---7~----|
D|-5-x-5-x-5-x-5---7-x-7-x-7-x-7---5-5-5-5---7~----|
A|-3-x-3-x-3-x-3---5-x-5-x-5-x-5---3-3-3-3---5~----|
E|-------------------------------------------------|
                                       x x      

================================================================

Resumo:

Intro     x4
Base      x2
Refrão     x2
Intro     x2
Base      x2
Refrão     x2
Ponte     x1
Quebrada  x2
Refrão     x4
Final     x1

================================================================

Letra: Giovani 

Tudo seria diferente 
se pudesse fazer mudar 
agora não precisa mais chorar 
Preferi sofrer, do que arriscar 

Lembranças que nos machucam 
Sempre voltam ao mesmo lugar 
o pensamento nos leva para longe 
distante do que tentamos buscar 

Nada faz parar 
A dor de te perder 
Agora estou bem demais 
Para me arrepender 
Composição de Giovani
Colaboração e revisão:
  • Jonathan
5.051 exibições
    • ½ Tom
    • A
    • Bb
    • B
    • C
    • Db
    • D
    • Eb
    • E
    • F
    • F#
    • G
    • Ab
  • Adicionar à lista

    0 comentários

    Ver todos os comentários

    Conseguiu tocar?

    0 Tocaram 0 Ainda não

    Grave um vídeo tocando O Gosto Amargo Em Minha Boca São Lágrimas e nos envie!

    00:00 / 00:00
    Outros vídeos desta música
    Repetir Qualidade Automático
    Outros vídeos desta música
    00:00 / 00:00
    Automático

    Cifra Club Pro

    Aproveite o Cifra Club com benefícios exclusivos e sem anúncios
    Cifra Club Pro
    Aproveite o Cifra Club com benefícios exclusivos e sem anúncios
    OK