Percebo Sua Carência, Aí Está Meu Desafio

Pull Down

tom: F#
Intro: (D#,C#,A#,B)

E|---------------------------------|
B|---------------------------------|
G|------6------6~-------6------6~--|
D|----8---------------6------------|
A|--6-----6~-6------4-----4~-4-----|
D|---------------------------------|

E|---------------------------------|
B|---------------------------------|
G|------6------6~-------6------6~--|
D|---------------------------------|
A|----8---------------9------------|
D|--6-----6~-6------7-----7~-7-----|


   Medo de carinho, medo de receber elogios
   Quem te fez sofrer?
   Quem te disse que é ruim?
   Quem te repreendeu quando sorriu assim?

Entra base
Oitava|
E|---------------------------------|
B|---------------------------------|
G|--8----10----11----13-----11-----|
D|--x----x-----x------x------x-----|
A|--6----8-----9-----11------9-----|
D|---------------------------------|


D#                 C#           A#    B
   Quem te fez ter medo de ser feliz... 

Refrão
Solinho, 2x cada
Um,junto com refrão|

Solo_1
E|--------------------------------------------------|
B|--------------------------------------------------|
G|--11-13-11-11-11-11-15-11-11-13-11-11-15-11-11-13-|
D|--------------------------------------------------|
A|--------------------------------------------------|
E|--------------------------------------------------|

Solo_2
E|--------------------------------------------------|
B|--16-16-16-14-14-14-12-12-12-11-11-11-11h12-11----|
G|----------------------------------------------11~-|
D|--------------------------------------------------|
A|--------------------------------------------------|
E|--------------------------------------------------|


F#              C#                B
   Agora estou aqui, pegando sua mão

   Protegendo seu coração
F#              C#                     B
   Agora estou aqui, querendo te ver sorrir

   Estou aqui para te ouvir

Repete
Intro: (D#,C#,A#,B)

E|---------------------------------|
B|---------------------------------|
G|------6------6~-------6------6~--|
D|----8---------------6------------|
A|--6-----6~-6------4-----4~-4-----|
D|---------------------------------|

E|---------------------------------|
B|---------------------------------|
G|------6------6~-------6------6~--|
D|---------------------------------|
A|----8---------------9------------|
D|--6-----6~-6------7-----7~-7-----|


   Enquanto estiver ao teu lado não
   Vou deixar o sorrir sair do teu rosto
   Quero deitar ao teu lado e me ver
   Preocupado com teu sono
   Percebe sua carência, aí esta meu desafio
   E não há nada mais forte do que o carinho
   Que trago comigo...

Repete
Refrão:

F#              C#                B
   Agora estou aqui, pegando sua mão

   Protegendo seu coração
F#              C#                     B
   Agora estou aqui, querendo te ver sorrir

   Estou aqui para te ouvir..

B                      F#
   O céu está aos meus pés
B                           F#
   Sempre consigo tudo que quero
B             F#               B
   Te fazer chorar, te fazer sorrir
               F#
   Te fazer lembrar 
                 B
   como era bom amaaaaar...

Aki toca mesmo
Solo_2 do refrão|

F#           B
   Naranananaaa....

Repete
Intro: (D#,C#,A#,B)

E|---------------------------------|
B|---------------------------------|
G|------6------6~-------6------6~--|
D|----8---------------6------------|
A|--6-----6~-6------4-----4~-4-----|
D|---------------------------------|

E|---------------------------------|
B|---------------------------------|
G|------6------6~-------6------6~--|
D|---------------------------------|
A|----8---------------9------------|
D|--6-----6~-6------7-----7~-7-----|

   Não é mais um mistério
   Você sabe o que quero
   Quero você...
Página 1 / 1

Letras e título
Acordes e artista

resetar configurações
OK