Cifra Club

Aprenda

Hush Hush

The Pussycat Dolls

Cifra: Principal (violão e guitarra)
Tom: C#
Intro:

E|---------------------------------------------------------------------------|
B|--------2----------------2----------------4-----------------1--------------|
G|------3---3------------3---3------------5---5-------------1---1------------|
D|----3-------2---2----4-------4---4----6-------6---6-----3-------3---3------|
A|--1-----------1------------------------------------------------------------|
E|-------------------2-----------2----4-----------4-----1-----------1--------|

E|---------------------------------------------------------------------------|
B|--------2-----------------7-----------------1----------------1-------------|
G|------3---3-------------6---6-------------2---2------------2---2-----------|
D|----4-------4---4-----8-------8---8-----3-------3---3----1-------1---1-----|
A|--------------------6-----------6------------------------------------------|
E|--2-----------2-----------------------1-----------1----1-----------1-------|
Composição de Andreas Romdhane / Ina Wroldsen / Josef Larossi / Nicole Scherzinger
Colaboração e revisão:
  • Leonardo Silva
7.976 exibições
    • ½ Tom
    • A
    • Bb
    • B
    • C
    • Db
    • D
    • Eb
    • E
    • F
    • F#
    • G
    • Ab
  • Adicionar à lista

    0 comentários

    Mostrar mais comentários

    Conseguiu tocar?

    0 Tocaram 0 Ainda não

    Grave um vídeo tocando Hush Hush e mande pra gente!

    00:00 / 00:00
    outros vídeos desta música
    repetir qualidade Automático
    Outros vídeos desta música
    00:00 / 00:00
    Automático

    Cifra Club Pro

    Aproveite o Cifra Club com benefícios exclusivos e sem anúncios
    7 dias grátis
    Cifra Club Pro
    Aproveite o Cifra Club com benefícios exclusivos e sem anúncios
    7 dias grátis
    OK