Cifra Club

And The Washington Monument Blinks Goodnight

Q And Not U

Cifra: Principal
exibições 290
Tom: D
Tabbed by:Vincent
Email:*

One of the best bands ever! and no guitar tabs on ultimate-guitar?

Tuning: Drop D
Verse part1 4 times
e|----------------------------------------------------------------|
B|----------------------------------------------------------------|
G|----------------------------------------------------------------|
D|-----------16-----16--------------------11----11----x4----------|
A|---0h12h14---14------x4-----------------------------------------|
D|-------------------------------0h7h9-------9--------------------|

Verse part2 6 times
e|-------------------------------------------------------|
B|-------------------------------------------------------|
G|-------------------------------------------------------|
D|----------------12--12---11----------------------------|
A|------0h7h9--------9---9-------------------------------|
D|-------------------------------------------------------|

Verse part3 2 times
e|---------------------------------------------------------|
B|---------------------------------------------------------|
G|---------------------------------------------------------|
D|----------------16-x4-------------12--12--11----x2-------|
A|---0h12h14----------------0h7h9------9---9---------------|
D|---------------------------------------------------------|

Break
e|---0------0-----0----------------------------|
B|---0------0-----0----------------------------|
G|---11-----4-----7----------------------------|
D|---x------x-----x----------------------------|
A|---9------2-----5----------------------------|
D|---------------------------------------------|

e|-----------------------------------------------|
B|-----------------------------------------------|
G|----7-7-7-7-7-7-7-7-7-7-7-7-7-7----------------|
D|-----------------------------------------------|
A|-----------------------------------------------|
D|-----------------------------------------------|

Laed riff for the second part off the song
e|-----------------------------------------------------------|
B|-----------------------------------------------------------|
G|-----------------------------------------------------------|
D|-----------------------------------------------------------|
A|---7---5---5-5-5p4--0-0-2p0h2---/7--5--4/12~~~~/14---------|
D|-----------------------------------------------------------|
Play this through the whole last part of the song with some variations
e|---0-------------0-------0----------------------|
B|---0-------------0-------0----------------------|
G|---4-------------7-------7----------------------|
D|---x-------------x-------x----------------------|
A|---2-------------5-------4----------------------|
D|------------------------------------------------|
     B             D(with some C# on the end of the measure)
These are the basic chords off the rythym guitarist I think. With variations.
These guys are just too good.

End with:
e|---0-------0-------0------------|
B|---0-------0-------0------------|
G|---9-------4-------7------------|
D|---x-------x-------x------------|
A|---7-------2-------5------------|
D|--------------------------------|

Greetings
Acordes para:

    0 comentários

      mostrar mais comentários

      Conseguiu tocar?

      0tocaram0ainda não

      Grave um vídeo tocando And The Washington Monument Blinks Goodnight e mande pra gente!

      00:00 / 00:00
      outros vídeos desta música
      repetirqualidadeautomática
      Outro vídeos desta música
        00:00 / 00:00
        automática
        OK