Cifra Club

Amizade

Quatro Por Um

Cifra: Principal
exibições 226.337
Tom: D
[Intro]  A  E  D  F#m  E

  A         E        D     F#m  E
Que bom te ter aqui comigo
  A        E             D  F#m  E
Pra conversar e te conhecer
A         E            D    F#m  E
Entra na roda e vem comigo
 A      E             D     F#m  E
Só é feliz quem tem amigos
D9                 A
Aproveitar esse momento lindo
 Bm              E
Cantar, sorrir, fazer amigos
 D9                    A
Celebrando a Deus que nos uniu
 Bm           E
Como foi bom te conhecer

  A         A/C#
Que bom te conhecer
  D         E
Pra mim foi um prazer
 A        A/C#
Viver em comunhão
  D    A     Bm      E    A
Amigo mais chegado que irmão

[Solo]  G  Bm  C  Em  D

E|-----------------------------------------------------------|
B|---15/17-17~---15-14----14~---15/17-17~----15-14-----------|
G|------------14-------16-----------------14-------16-14~----|
D|-----------------------------------------------------------|
A|-----------------------------------------------------------|
E|-----------------------------------------------------------|

E|-----------------------------------------------------------|
B|-15/17-17~----15-14---14b---------14-15/17-17~171514-------|
G|-----------14-------16--14~--14/16----------------141614~~-|
D|---------------------------------------------------------- |
A|-----------------------------------------------------------|
E|-----------------------------------------------------------|
Acordes para:

    0 comentários

      mostrar mais comentários

      Conseguiu tocar?

      21tocaram0ainda não

      Grave um vídeo tocando Amizade e mande pra gente!

      00:00 / 00:00
      outros vídeos desta música
      repetirqualidadeautomática
      Outro vídeos desta música
        00:00 / 00:00
        automática
        OK