Cifra Club

Aprenda

Compaixão

Quatro Por Um

Cifra: Principal (violão e guitarra)
tom: D
Intro:

     Bm                          F#m     A
E|------5-------------5-----------9--------------|
B|--------7--5-7--------7-5-7--------------------|    ( 2x )
G|-----------------------------------------------|
D|-----------------------------------------------|

Bm                D          G            A4 A
   Deus de compaixão, dá-me mais da tua graça
Bm              D         G          A4 A
   És minha porção, meu amor, tu me bastas

      Em          G           D  A4 A
   Tu és minha unção, meu poder
      Em          G          Em   D/F#  G    A 
   Tu és minha razão, meu maior   de - se - jo  é

D         G            Bm                     A
   Te adorar, me entregar em teus braços de amor
Bm        G          D                  F#m
   Te adorar, derramar minha vida aos teus pés


( Quando cantar : Deus de compaixão da 2º parte faz: )

E|------------------------|
B|-----5--7---------------| ( Isso se repete até : Tú és ... )
G|------------------------|

Bm                D
   Deus de compaixão,
             G              A4 A
   faz-me andar e agir em graça
Bm             D         G        A4 A
   No meu coração, escondi tua palavra

Solo teclado :
                
03:18 ->  E|----------------------5-2---------|
          B|---3-2-3------3-2-3---------2-5---|
          G|----------------------------------| 

          E|------------------------0b1-2---------------------|
          B|---3-2-3------3-2-3---------------------5---------|
          G|-------------------------------------3------------|
          D|--------------------------------------------------|


 D
   Te adorar ...
Composição de Linvingsthon Farias
Colaboração e revisão:
  • daniel fernandes
  • Lucas Faria
46.530 exibições
    • ½ Tom
    • A
    • Bb
    • B
    • C
    • Db
    • D
    • Eb
    • E
    • F
    • F#
    • G
    • Ab
  • Adicionar à lista

    0 comentários

    Ver todos os comentários
    00:00 / 00:00
    outros vídeos desta música
    repetir qualidade Automático
    Outros vídeos desta música
    00:00 / 00:00
    Automático

    Cifra Club Pro

    Aproveite o Cifra Club com benefícios exclusivos e sem anúncios
    Cifra Club Pro
    Aproveite o Cifra Club com benefícios exclusivos e sem anúncios
    OK