Cifra Club

Corro Pra Ti

Quatro Por Um

Cifra: Principal
exibições 145.470
Tom: A#
Intro:
        Gm                                                    Eb
E|--------------------------------------------|---------------------------------|
B|------1-------1-------1-------1----1--------|-----1-----1-----1-----1---1-----|
G|---3----3------3-------3-------3-----3------|---3--3-----3-----3-----3---3----|
D|-5--------5------5-------5-------5-----5----|--1----1-----1-----1-----1---1---|
A|--------------------------------------------|---------------------------------|
E|--------------------------------------------|---------------------------------|
       Bb                              F
E|-------------------------------------|------------------------------------|
B|------1-----1-----1------1-----1-----|------1-----1-----1-----1-----------|
G|----3---3-----3------3-----3-----3---|----2---2-----2-----2-----2---------|
D|--3------3------3------3-----3-----3-|--3------3-----3-----3-----3--------|
A|-------------------------------------|------------------------------------|
E|-------------------------------------|------------------------------------|

Na ultima antes de cantar
E|------------------1---|
B|-------1-----1--------|
G|-----2---2-----2------|
D|---3------3-----3-----|
A|----------------------|
E|----------------------|
                           Gm     Eb
Eu descanso em ti, Eu descanso em ti
                    Bb         F
Em meio a tempestades confiarei
                         Gm     Eb
Eu espero em Ti, Eu espero em Ti
                      Gm          F
E mesmo em meio Às ondas, não temerei

Gm
A minha vida vou viver
Eb
Todos os dias pra te amar
Bb
E mesmo em tribulações
Dm
Encontro forças pra adorar
Gm                               Eb
A minha fé firmada está No que a bíblia diz pra mim
Dm            Eb       Fsus4       F
Eu sou mais que vencedor

                    Bb                        F
Eu corro pra ti, Jesus, Eu danço pra ti, Jesus
              Cm
E não importa o que aconteça
            Eb
Confiarei na tua palavra

                      Bb                     F
Eu corro pra ti, Jesus, Eu danço pra ti, Jesus
                Cm
E sei que nada vai me separar
Eb                    Gm (intro)
Nada vai me separar de ti

Bb                                F
Nada vai me separar, Nada vai me separar
      Dm    Eb     Fsus4   F
De ti, Jesus, de ti
Acordes para:
    Colaboração e revisão:

    0 comentários

      mostrar mais comentários

      Conseguiu tocar?

      15tocaram1ainda não

      Grave um vídeo tocando Corro Pra Ti e mande pra gente!

      00:00 / 00:00
      outros vídeos desta música
      repetirqualidadeautomática
      Outro vídeos desta música
        00:00 / 00:00
        automática
        OK