Cifra Club

Enquanto Houver Fôlego

Quatro Por Um

Cifra: Principal (violão e guitarra)
tom: A
Intro: A9  D9  F#m  D9
E|-------5---7-9---|
B|---5-7-----------|    (4x)
G|-----------------|
D|-----------------|
A|-----------------|
E|-----------------|

A9          E/G#                 D9
Digno és, senhor, da nossa canção
         E              F#m
Fomos criados pra te adorar
                  E             D9
De gólria e majestade vestido estás
           E          Bm7
Teu é o domínio e o poder

          F#m   E
Acima de tudo
Bm7       E
Acima de todos

A9
Cantarei enquanto houver fôlego
D9
Cantarei enquanto eu existir
Bm7                  F#m
Meu louvor é só pra ti
                E
Eu vivo só pra ti

A9
Cantarei enquanto houver fôlego
D9
Cantarei enquanto eu existir
Bm7               E
Mesmo em dias difíceis
      A9
cantarei...

Bm7    F#m   E
Acima de tudo
Bm7   D9    E
Acima de todos

A9
Cantarei enquanto houver fôlego
D9
Cantarei enquanto eu existir
Bm7                  F#m
Meu louvor é só pra ti
                E
Eu vivo só pra ti

A9
Cantarei enquanto houver fôlego
D9
Cantarei enquanto eu existir
Bm7               E
Mesmo em dias difíceis
     F#m
CANTAREI... 

Solo: F#m  A9  D9  Bm7  F#m  A9  D9  E

A9
Cantarei enquanto houver fôlego
D9
Cantarei enquanto eu existir
Bm7                  F#m
Meu louvor é só pra ti
                E
Eu vivo só pra ti

A9
Cantarei enquanto houver fôlego
D9
Cantarei enquanto eu existir
Bm7               E
Mesmo em dias difíceis
     F#m
CANTAREI... A9  D9 Bm7

Final: F#m  A9  D9 Bm7
Solo:
E|-----9-7/9-------9-7/9----9-7-9-7-9/7---------|-9-7/9-----9-7/9------|
B|-------------7------------7----------------7--|-------7-----------7--|
G|----------------------------------------------|----------------------|
D|----------------------------------------------|----------------------|
A|----------------------------------------------|----------------------|
E|----------------------------------------------|----------------------|
                          (2x)
E|9-7/9-----9-7/9-------------|
B|-------7--------7---7/12----|
G|----------------------------|
D|----------------------------|
A|----------------------------|
E|----------------------------|
00:00 / 00:00
Outros vídeos desta música
Repetir
Outros vídeos desta música
Composição de Bruno Santos / Valmir Bessa
Colaboração e revisão:
58.302 exibições
    • ½ Tom
    • A
    • Bb
    • B
    • C
    • Db
    • D
    • Eb
    • E
    • F
    • F#
    • G
    • Ab
  • Adicionar à lista

    0 comentários

    Ver todos os comentários

    Conseguiu tocar?

    4 Tocaram 1 Ainda não

    Grave um vídeo tocando Enquanto Houver Fôlego e nos envie!

    Entre para oCifra Club PRO

    Tenha acesso a benefícios exclusivos no App e no Site

    • Chega de anúncios

    • Prioridade de compra em lançamentos

    • Mais recursos no app do Afinador

    • Atendimento Prioritário

    • Descontos nos produtos Cifra Club

    • Ajude a produzir mais conteúdo

    00:00 / 00:00

    Cifra Club Pro

    Aproveite o Cifra Club com benefícios exclusivos e sem anúncios
    Cifra Club Pro
    Aproveite o Cifra Club com benefícios exclusivos e sem anúncios
    OK