Cifra Club

Então É Só Clamar

Quatro Por Um

Cifra: Principal (violão e guitarra)
Tom: F# (forma dos acordes no tom de F) Capotraste na 1ª casa
[Intro] C  G/B  Am  Em  F  C  Dm

 C               G/B              Am
Vale a pena ser fiel, dizer não pro mundo
            Em          F             C
Em frente prosseguir, obedecer é o caminho
              Bb    F/A         G
Para estar seguro quando o mal surgir
 F7+                     G/F                    Em                   Am
Não abra mão dos seus direitos que com sangue Cristo conquistou na cruz
 Bb                     F/A               G
Se ficar difícil é só clamar o nome de Jesus

 C                 G/B
Vale a pena acreditar
                Am                 Em
Dizer sim pra Cristo e nunca desistir
F                 C/E
A obediência tem seu preço
       Bb          F/A            G
Mas o benefício é ver o mar se abrir
F                       G
E quando achar que não tem jeito
              Em                Am
E ficar impossível carregar a Cruz
 Bb                    F/A
Lembre que você pode clamar
           C
O nome de Jesus
    
G            C
Então é só clamar
         G/B             Am
Como Abraão no Moriá clamou
         Gm        C7      F7+
Como Josué que no Jordão clamou
         Em                Dm
Pode confiar, Deus vai te livrar
       G                 C
Ele é fiel, então é só clamar
         G/B                  Am
Como Bartimeu que por Jesus clamou
             Gm         C7       F7+
Como Pedro que de uma prisão clamou
          Em                  Dm
Pode confiar, Deus vai te livrar
       G
Ele ouvirá a quem com fé clamar

[Solo]  F  G  Em  Am  F  G  Em  Am

E|------------------------------------------------------------------------------------|
B|--2----2-2-2--2/4--4-4-4--2/4--4-4-4--9/11-11-11/9-9--2----2-2-2------6-6-6--4-4~~--|
G|--1h3--3-3-3--3/5--5-5-5--3/5--5-5-5--8/10-10-10/8-8--1h3--3-3-3--3/5---------------|
D|------------------------------------------------------------------------------------|
A|------------------------------------------------------------------------------------|
E|------------------------------------------------------------------------------------|

E|------------------------------------16-------------------9/11/9~~-------------------|
B|---13b14--13--11-----------16b18~~------18r16~-----------9/11/9~~-------------------|
G|------------------13--10------------------------------------------------------------|
D|------------------------------------------------------------------------------------|
A|------------------------------------------------------------------------------------|
E|------------------------------------------------------------------------------------|

[Final]  F  G  Am
exibições 163.634

0 comentários

mostrar mais comentários

Conseguiu tocar?

13 tocaram 8 ainda não

Grave um vídeo tocando Então É Só Clamar e mande pra gente!

00:00 / 00:00
outros vídeos desta música
repetir qualidade Automático
Outros vídeos desta música
00:00 / 00:00
Automático
OK