Cifra Club

Te Agradeço

Quatro Por Um

Cifra: Principal (violão e guitarra)
tom: G
C9           D    D9 C9               D
 Andava sozinho,  perdido na escuridão
Am7          G/B     C           Am7
   Das trevas pra luz, você me chamou
         G/B   C             D4    D
Em meu coração teu rosto pintou

Oh, DEUS, obrigado

G                      D/F#
 Por teu espirito em mim     por tua vida em mim
Em7                    C9
  Quero adorar meu amado, meu DEUS
G                      D/F#
 Por tua graça em mim      pelo teu fogo em mim
Em7                                C9
   Senhor, eu te agradeço, te agradeço
                Em7          D9              C9
Senhor, eu te agradeço  Te agradeço, Te agradeço

Solo: G  D/F#  Em7  C9  G  D/F#  Em7  D/F#  C9
E|----------------------------------------------------------------------------------|
B|--7/8---8-10-10b-10-8/10-10---10-12-12b--10/12-12--12-13-13b13b-------------------|
G|------7---------------------7--------------------12-------------7/9-12-12/14------|
D|----------------------------------------------------------------------------------|
A|----------------------------------------------------------------------------------|
E|----------------------------------------------------------------------------------|

E|---------------------------------------------15/17/14-15-------12/14-15-----------|
B|-13/15-15-15-15-13-12---------------12-13-15-------------10/12----------15/17-----|
G|----------------------14~~--11-12-14----------------------------------------------|
D|----------------------------------------------------------------------------------|
A|----------------------------------------------------------------------------------|
E|----------------------------------------------------------------------------------|

E|-------15-17---------15-17-17/19--17p15-17--|
B|-15/17-------15-17-19-----------------------|
G|--------------------------------------------|
D|--------------------------------------------|
A|--------------------------------------------|
E|--------------------------------------------|

00:00 / 00:00
Outros vídeos desta música
Repetir
Outros vídeos desta música
Composição de Emerson Pinheiro / Livington Farias
Colaboração e revisão:
52.231 exibições
    • ½ Tom
    • A
    • Bb
    • B
    • C
    • Db
    • D
    • Eb
    • E
    • F
    • F#
    • G
    • Ab
  • Adicionar à lista

    0 comentários

    Ver todos os comentários

    Entre para oCifra Club PRO

    Tenha acesso a benefícios exclusivos no App e no Site

    • Chega de anúncios

    • Prioridade de compra em lançamentos

    • Mais recursos no app do Afinador

    • Atendimento Prioritário

    • Descontos nos produtos Cifra Club

    • Ajude a produzir mais conteúdo

    00:00 / 00:00

    Cifra Club Pro

    Aproveite o Cifra Club com benefícios exclusivos e sem anúncios
    Cifra Club Pro
    Aproveite o Cifra Club com benefícios exclusivos e sem anúncios
    OK