Cifra Club

Aprenda

I Want To Break Free

Queen

Tab de baixo: Principal
1° PARTE

 I want to break free... 
G|-----------------------------------------
D|-----------------------------------------
A|-----7—777777-7-(6X)----------------------
E|----------------------5-5555555-5-(2X)----

I've got to break free...
G|-----------------------------------------
D|-----------------------------------------
A|----7—777777-7-(2X)----------------------
E|-----------------------------------------
	
God knows…
G|------------------------------------------------
D|------------------------------------------------
A|--------------------------------7-777777--------
E|------7-777777-7-6-5-5555555-5------------7—0~--

2°PARTE
I've fallen in love... 
G|-----------------------------------------
D|-----------------------------------------
A|-----7—777777-7-(6X)----------------------
E|----------------------5-5555555-5-(2X)----

I've fallen in love...
G|-----------------------------------------
D|-----------------------------------------
A|----7—777777-7-(2X)----------------------
E|-----------------------------------------
	
God knows…
G|------------------------------------------------
D|------------------------------------------------
A|--------------------------------7-777777--------
E|------7-777777-7-6-5-5555555-5------------7—0~--

3°PARTE
It's strange but it's tru
G|-------------------------------------------
D|--------------------------------------------
A|--------------------------------------------
E|----77777777---55555555---77777777—5555555—

But I have to be sure…
G|-----------------------------------------
D|-----------------------------------------
A|-------------99999999--------------------
E|---99999999------------------------------

Oh, how I want to be free
G|-----------------------------------------
D|-----------------------------------------
A|-----------------------------------------
E|----5555---7777---9999-9-7-5-(2X)--------

Oh, how I want to be free
G|-----------------------------------------
D|-----------------------------------------
A|-------------77777-----------------------
E|-5555-7777---------7-0~-----------------

SOLO - Repete a 1° e 2° partes.

4° PARTE
But life still goes on…
G|-----------------------------------------
D|-----------------------------------------
A|-----7—777777-7-(6X)----------------------
E|----------------------5-5555555-5-(2X)----

I don't want to live alone...
G|-----------------------------------------
D|-----------------------------------------
A|----7—777777-7-(2X)----------------------
E|-----------------------------------------
	
God knows…
G|------------------------------------------------
D|------------------------------------------------
A|--------------------------------7-777777--------
E|------7-777777-7-6-5-5555555-5------------------

So baby can't you see…
G|------------------------------------------------
D|------------------------------------------------
A|-------------------------777777777--------------
E|---77777777-6-55555555-5----------7-0~----------

I've got to break free, I want to break free, yeah,
I want, I want, I want, I want to break free…
G|------------------------------------------------
D|------------------------------------------------
A|------------------------------------------------
E|---0-0000000-0-0-(13X)-0~-----------------------

_______________________________________________________
Composição de John Deacon
Colaboração e revisão:
  • julio prampero
  • Guilherme Henrique
30.586 exibições

0 comentários

Ver todos os comentários
00:00 / 00:00
Outros vídeos desta música
Repetir Qualidade Automático
Outros vídeos desta música
00:00 / 00:00
Automático

Cifra Club Pro

Aproveite o Cifra Club com benefícios exclusivos e sem anúncios
Cifra Club Pro
Aproveite o Cifra Club com benefícios exclusivos e sem anúncios
OK