Cifra Club

Love of My Life

Queen

Tab de baixo: Principal
exibições 12.808

:21
|---14---------------------17---------14-15--15-14-19------------------16-|19
|10------12-----17\15---15----14-----------15---------17-----15---17-19---|
|--------------------15----------17-17--------------------15--------------|
|-----------15------------------------------------------------------------|

1:05
|-------14-14-----12-14-16-19-19---10---17----------14-------10---12----10-|
|-----14-------12-------------------------14------14-----8-8---------10----|
|---12--------------------------------------17--12-------------------------|
|8-------------------------------8-----------------------------------------|

1:40
|---------15---15-14-12-10-----------14-------15--10-------14---------19--19-|
|-12-13-15-------------------------14-------15----------------------19--19---|
|-------------------------------12-------13----------------------17----------|
|--------------------------10------------------------------------------------|

|-----17--------------------------17-15-14----------|
|---14----16--------------12-14-----------17-15-----|   piano/guitar solo
|---------------22/15-15----------------------------|
|-16---------15-------------------------------------|

2:46 or 7
|-----------------------14------15---------------------------------------10-|
|-5---3----14---12----14------15----------12--------10\12-------------------|
|-------------------12------13------13-12-----15-----------12---10--11-12---|
|-------------------------------------------15---13-------------------------|
Composição: Freddie Mercury

0 comentários

mostrar mais comentários

Conseguiu tocar?

0 tocaram 0 ainda não

Grave um vídeo tocando Love of My Life e mande pra gente!

00:00 / 00:00
outros vídeos desta música
repetir qualidade Automático
Outros vídeos desta música
00:00 / 00:00
Automático
OK