Who Wants To Live Forever

Queen

Composição de: Brian May
tom: G
[Intro]  Em

            Am
There's no time for us
  D          Em      Em/D
There's no place for us
  Em/C#        G/D                  A/E
What is this thing that fills our dreams
          D         D4
Yet slips away from us?

     C        G/B    Am
Who wants to live forever?
     C        Bm     Am   D
Who wants to live forever

             Am
There's no chance for us
D           Em       Em/D
It's all decided for us
  Em/C#        G/D             A/E
This world has only one sweet moment
    D
Set aside for us

     C        G/B    Am
Who wants to live forever?
     C        Bm     Am
Who wants to live forever

( C  G/B  Am )


     C        Bm     Am7
Who dares to love forever?
D  D4                 Em
Oh    when love must die?

[Solo]  Em  C  Em  C  Em  C  Em  C

E|------------------------------------------------------|
B|---8---7---------8--7p8p7--------7-8-8------7-8-10-12-|
G|------------9~---------------9~----------9------------|
D|-9--------9----------------9--------------------------|
A|------------------------------------------------------|
E|------------------------------------------------------|

E|------------------------------------------------------|
B|------------------------------------------------------|
G|----9-11--11b-11b-11b--9p7-9p7-----------------5------|
D|-9------------------------------9-7------------5------|
A|-------------------------------------10-9-7-5--3------|
E|------------------------------------------------------|


          Em              C
Touch my tears with your lips
          Em                    C   D
Touch my world with your fingertips

     G      D/F#   Em
And we can have forever
     G      D/F#   Em
And we can love forever
 Em/C#     D      Bb/D
Forever is our today

     G        D/F#   Em
Who wants to live forever
     G        D/F#   Em
Who wants to live forever
 Em/C#     D      Bb/D
Forever is our today

  Em
Who waits forever anyway?
Página 1 / 1

Letras e título
Acordes e artista

resetar configurações
OK