Cifra Club

Aprenda

Fairweather Friends

Queens Of The Stone Age

Cifra: Principal (violão e guitarra)
tom: G
Intro:
E|---------------------------------------------------------------------------|
B|---------------------------------------------------------------------------|
G|---------------------------------------------------------------------------|
D|------------------------7-------------repeat-------------------------------|
A|---99999999-7---7-9-10----10-9-7-------------------------------------------|
E|---77777777-5--------------------------------------------------------------|

E|---------------------------------------------------------------------------|
B|---------------------------------------------------------------------------|
G|-------0--------0----------------------------------------------------------|
D|-----2--4----2----4--------------------------------------------------------|
A|---3--3----3---2-----------------------------------------------------------|
E|---------------------------------------------------------------------------|

Verso
E|--2--2-------------------------------------------------------------------------|
B|--2--2-------------------------------------------------------------------------|
G|--4--4-------------------------------------------------------------------------|
D|--4--4---2--5-7----------------------------------------------------------------|
A|--2--2---2--5-7---repeat a few times end on...---------------------------------|
E|---------0--3-5----------------------------------------------------------------|

It seems...every single time I was bleeding
E|---------------------------------------------------------------------------|
B|---------------------------------------------------------------------------|
G|---------------------------------------------------------------------------|
D|---------------------------------------------------------------------------|
A|----555555-5-22------55555-7-9---------------------------------------------|
E|----333333-2-00------33333-5-7---------------------------------------------|
Solo....

So what's it gonna take....to get ya back in bed?
E|---------------------------------------------------------------------------|
B|---888888-10-12------------------------------------------------------------|
G|---777777-9--11------------------------------------------------------------|
D|---555555-7--9-------------------------------------------------------------|
A|---------------------------------------------------------------------------|
E|---------------------------------------------------------------------------|
FAIRWEATHER FRIENDS!
E|---------------------------------------------------------------------------|
B|---------------------------------------------------------------------------|
G|---------------------------------------------------------------------------|
D|------------------7--------------------------------------------------------|
A|---9999-7----9-10---10-9-7-------------------------------------------------|
E|---7777 5------------------------------------------------------------------|
Colaboração e revisão:
  • Bruno
1.868 exibições
    • ½ Tom
    • A
    • Bb
    • B
    • C
    • Db
    • D
    • Eb
    • E
    • F
    • F#
    • G
    • Ab
  • Adicionar à lista

    0 comentários

    Ver todos os comentários
    00:00 / 00:00
    outros vídeos desta música
    repetir qualidade Automático
    Outros vídeos desta música
    00:00 / 00:00
    Automático

    Cifra Club Pro

    Aproveite o Cifra Club com benefícios exclusivos e sem anúncios
    Cifra Club Pro
    Aproveite o Cifra Club com benefícios exclusivos e sem anúncios
    OK