Cifra Club

Aprenda

Go with the Flow

Queens Of The Stone Age

Cifra: Principal (violão e guitarra)
tom: A
Afinação das 2 Guitarras: Padrão


----****----
Riffs
----****----

Riff 1

Guitarra 1:
|--------------------------|--------------------------|
|--------------------------|--------------------------|
|--------------------------|--------------------------|
|--2--2--2--2--2--2--2--2--|--2--2--2--2--2--2--2--2--|
|--2--2--2--2--2--2--2--2--|--2--2--2--2--2--2--2--2--|
|--0--0--0--0--0--0--0--0--|--0--0--0--0--0--0--0--0--|

--------------------------|--------------------------|
--------------------------|--------------------------|
--5--5--5--5--5--5--5--5--|--2--2--2--2--2--2--2--2--|
--5--5--5--5--5--5--5--5--|--2--2--2--2--2--2--2--2--|
--3--3--3--3--3--3--3--3--|--0--0--0--0--0--0--0--0--|
--------------------------|--------------------------|


Guitarra 2 (so na INTRO que é para ser tocada):

|------|------|------------12----15--12--|-----------------7--|
|------|------|--------12----------------|--------------------|
|------|------|--------------------------|--------------------|
|------|------|--------------------------|--------------------|
|------|------|--------------------------|--------------------|
|------|------|--------------------------|--------------------|
                                                                           
------------------|--7--8--10--8---7-----------|------------12--14----15--|
------------------|----------------------------|--------12----------------|
------------------|----------------------------|--------------------------|
------------------|----------------------------|--------------------------|
------------------|----------------------------|--------------------------|
------------------|----------------------------|--------------------------|
                                                                               
--------------12----|--19b---------------|--18b--------------7--|
--------------------|--------------------|----------------------|
--------------------|--------------------|----------------------|
--------------------|--------------------|----------------------|
--------------------|--------------------|----------------------|
--------------------|--------------------|----------------------|

-----

Riff 2
|--------------------------|--------------------------|
|--------------------------|--------------------------|
|--------------------------|--------------------------|
|--2--2--2--2--2--2--2--2--|--2--2--2--2--2--2--2--2--|
|--2--2--2--2--2--2--2--2--|--2--2--2--2--2--2--2--2--|
|--0--0--0--0--0--0--0--0--|--0--0--0--0--0--0--0--0--|

--------------------------|--------------------------|
--------------------------|--------------------------|
--5--5--5--5--5--5--5--5--|--7--7--7--7--7--7--7--7--|
--5--5--5--5--5--5--5--5--|--7--7--7--7--7--7--7--7--|
--3--3--3--3--3--3--3--3--|--5--5--5--5--5--5--5--5--|
--------------------------|--------------------------|

----****----
Música
----****----


Intro:  RIff 1 (2x)


Riff 1 (6x)
She said "i'll throw myself away,
They're just photos after all"
I can't make you hang around.
I can't wash you off my skin.
Outside the frame, is what we're leaving out
You won't remember anyway


Riff 2 (4x)
I can go with the flow
I can go with the flow (But don't say it doesn't matter anymore)
I can go with the flow
I can go (Do you believe it in your head?)


Riff 1 (8x)
It's so safe to play along
Little soldiers in a row
Falling in and out of love
With something sweet to throw away.
But I want something good to die for
To make it beautiful to live.
I want a new mistake, lose is more than hesitate.
Do you believe it in your head?


Riff 2 (4x)
I can go with the flow
I can go with the flow (But don't say it doesn't matter anymore)
I can go with the flow
I can go (Do you believe it in your head?)


Riff 2 (6x)
aaaa aaaa
aaaa aaaa
aaaa aaaa
aaaa aaaa
aaaa aaaa
aaaa aaaa
Composição de Josh Homme / Nick Oliveri
Colaboração e revisão:
  • Henrique
97.465 exibições
    • ½ Tom
    • A
    • Bb
    • B
    • C
    • Db
    • D
    • Eb
    • E
    • F
    • F#
    • G
    • Ab
  • Adicionar à lista

    0 comentários

    Ver todos os comentários
    00:00 / 00:00
    Outros vídeos desta música
    Repetir Qualidade Automático
    Outros vídeos desta música
    00:00 / 00:00
    Automático

    Cifra Club Pro

    Aproveite o Cifra Club com benefícios exclusivos e sem anúncios
    Cifra Club Pro
    Aproveite o Cifra Club com benefícios exclusivos e sem anúncios
    OK