Cifra Club

Aprenda

In my Head

Queens Of The Stone Age

Cifra: Principal (violão e guitarra)
tom: Ab
intro:

     Ab
e|----------------------------------|
B|----------------------------------|
G|----------------------------------|
D|-6-6-6-6-6-6-6-6-6-6-6-6-6-6-6-6--|
A|----------------------------------|
E|----------------------------------|

     G                               F#
e|-------------------------------------------------|
B|-------------------------------------------------|
G|-------------------------------------------------|
D|-5-5-5-5-5-5-5-5-5-5-5-5-5-5-5-5-4-4-4-4-4-4-4-4-|
A|-------------------------------------------------|
E|-------------------------------------------------|

     G
e|--------------------------------------------------|
B|--------------------------------------------------|
G|--------------------------------------------------|
D|-4-4-4-4-4-4-4-4-5-5-5-5-5-5-5-5-5-5-5-5-5-5-5-5--|
A|--------------------------------------------------|
E|--------------------------------------------------|

verso:

     E             C             Db                   A        G A  G
e|---------------------------------------------------------------|
B|---------------------------------------------------------------|
G|---------------5-5-5-5-5-5-5-6-6-6-6-6-6-6-6-------------------|
D|-2-2-2-2-2-2-2-5-5-5-5-5-5-5-6-6-6-6-6-6-6-6-7-7-7-7-----------| 4x
A|-2-2-2-2-2-2-2-3-5-3-3-3-3-3-4-4-4-4-4-4-4-4-7-7-7-7-----------|
E|-0-0-0-0-0-0-0-------------------------------5-5-5-5--3-5-3----| 

E             C                  Db     A
     It's the cruelest joke to play
E             C                  Db     A
     I'm so high i'm run in place
E             C             Db         A
     only a line we seperate...          so

Refrão:

  E                            G
I keep on playing our favorite song
                           D
I turn it up while you're gone
                                    Eb
It's all i've got when you're in my head           

And your in my head so i need it

Verso:

  E         C         Db           A
You're the  only   thing   i've   got
    E         C         Db         A
I  can't seem  to   get     enough
 E         C         Db         A
We   collide   for  one   embrace

Refrão 2x:

E                                 G
   i keep on playin' our favorite song
                             D
   i turn it up while you're gone          
                                    Eb
   it's all i got when you're in my head  
                                        
   and you're in my head so i need it   

Solo:

  Eb           E     F     F#
e|------------------------------------------|
B|------------------------------------------|
G|------------------------------------------|
D|11111111--222--444--55555555\1------------|
A|------------------------------------------|
E|------------------------------------------|

e|------------------------------------------|
B|------------------------------------------|
G|------------------------------------------|
D|11111111--222--444--555-5h7p5h7p5---------|
A|------------------------------------------|
E|------------------------------------------|

e|------------------------------------------|
B|------------------------------------------|
G|------------------------------------------|
D|11111111--222--444--555-5h7-9-7-5---------|
A|------------------------------------------|
E|------------------------------------------|

e|------------------------------------------|
B|------------------------------------------|
G|------------------------------------------|
D|11111111--222--444--2-2~~~~---------------|
A|------------------------------------------|
E|------------------------------------------|

( E C Db A ) 3x

 E     G
Hurry up
       D        Eb
and I wait forever

Refrão:

E                              G
I keep on playin' our favorite song
                         D
I turn it up while you're gone
                                Eb
It's all i got when you're in my head

And you're in my head so i need it  (2x)

2º solo:

e|--------------------|     e|----------------------------------------|
B|-5h77777777-7p5h7p5-|     b|-7-7-7--8-8-8--10-10-10--8-8-8--7-8-7-5-|
G|--------------------|     g|----------------------------------------|
D|--------------------| 3x  d|----------------------------------------|
A|--------------------|     a|----------------------------------------|
E|--------------------|     e|----------------------------------------|

e|-----------------------------------|---------------------------------|
B|-5h7777-7-5-7-10-710-10/12-10-7-5--|-5h777-7-5-7-20-7-10-12/14-12-10-|
G|-----------------------------------|---------------------------------|
D|-----------------------------------|---------------------------------|
A|-----------------------------------|---------------------------------|
E|-----------------------------------|---------------------------------|

e|-----------------------------------|----------------------------------|
B|-5h7777-7-5-7-10-710-10/12-10-7-5--|-7775-8-7-8-10-8-10-12-10-8-7-8-7-|
G|-----------------------------------|----------------------------------|
D|-----------------------------------|----------------------------------|
A|-----------------------------------|----------------------------------|
E|-----------------------------------|----------------------------------|

Refrão:

E                              G
I keep on playin' our favorite song
                          D
I turn it up while you're gone
                                 Eb
It's all i got when you're in my head

And you're in my head so i need it

Final:

E           G
I   need   it
            D
I   need   it
                   Eb
I   need   it...  now
Composição de Alain Johannes / Joey Castillo / Josh Freese / Josh Homme / Troy Van Leeuwen
Colaboração e revisão:
  • Matheus Oliveira
  • Leonardo Rodrigues
  • Gabriel Lopes
58.336 exibições
    • ½ Tom
    • A
    • Bb
    • B
    • C
    • Db
    • D
    • Eb
    • E
    • F
    • F#
    • G
    • Ab
  • Adicionar à lista

    0 comentários

    Ver todos os comentários
    00:00 / 00:00
    Outros vídeos desta música
    Repetir Qualidade Automático
    Outros vídeos desta música
    00:00 / 00:00
    Automático

    Cifra Club Pro

    Aproveite o Cifra Club com benefícios exclusivos e sem anúncios
    Cifra Club Pro
    Aproveite o Cifra Club com benefícios exclusivos e sem anúncios
    OK