Cifra Club

Aprenda

Little Sister

Queens Of The Stone Age

Cifra: Principal (violão e guitarra)
tom: Db
Intro:
E|-------------------------------------------------------------|
B|-------------------------------------------------------------|
G|-------------------------------------------------------------|
D|-------------------------------------------------13-13-13----| » FX: Overdrive (pouco ganho)
A|---------11-11----11-11-11-----14-14-14----------11-11-11----|
E|---------9--9-----11-11-11-----12-12-12----------------------| » (1x)

E|-------------------------------------------------------------|
B|-------------------------------------------------------------|
G|-------------------------------------------------------------|
D|-------------------------------------------------13-13-13----|
A|-----11-11-11----11-11-11-----14-14-14-----------11-11-11----|
E|-----9--9--9-----11-11-11-----12-12-12-----------------------| » (3x)

Verso #1:

Hey sister why you all alone?
I'm standing out your window
Hey little sister, can I come inside, dear?

E|-------------------------------------------------------------|
B|-------------------------------------------------------------|
G|-------------------------------------------------------------|
D|-------------------------------------------------13-13-13----|
A|-----11-11-11----11-11-11-----14-14-14-----------11-11-11----|
E|-----9--9--9-----11-11-11-----12-12-12-----------------------|

E|-------------------------------------------------------------|
B|-------------------------------------------------------------|
G|-------------------------------------------------------------|
D|-------------------------------------------------13-13-13----|
A|-----11-11-11----11-11-11-----14-14-14-----------11-11-11----|
E|-----9--9--9-----11-11-11-----12-12-12-----------------------|

E|-------------------------------------------------------------|
B|-------------------------------------------------------------|
G|-------------------------------------------------------------|
D|-------------------------------------------------13-13-13----|
A|-----11-11-11----11-11-11-----14-14-14-----------11-11-11----|
E|-----9--9--9-----11-11-11-----12-12-12-----------------------|

E|-------------------------------------------------------------|
B|-------------------------------------------------------------|
G|-------------------------------------------------------------|
D|---11-11-11---11-11-11---------------------------------------|
A|---9--9--9----9--9--9----14-14-14--14-14\13----13\11---------|
E|-------------------------12-12-12--12-12\11----11\9----------|

I wanna show you all my love
I wanna be the only one
I know you like nobody ever, baby

E|-------------------------------------------------------------|
B|-------------------------------------------------------------|
G|-------------------------------------------------------------|
D|-------------------------------------------------13-13-13----|
A|-----11-11-11----11-11-11-----14-14-14-----------11-11-11----|
E|-----9--9--9-----11-11-11-----12-12-12-----------------------|

E|-------------------------------------------------------------|
B|-------------------------------------------------------------|
G|-------------------------------------------------------------|
D|-------------------------------------------------13-13-13----|
A|-----11-11-11----11-11-11-----14-14-14-----------11-11-11----|
E|-----9--9--9-----11-11-11-----12-12-12-----------------------|

E|-------------------------------------------------------------|
B|-------------------------------------------------------------|
G|-------------------------------------------------------------|
D|-------------------------------------------------13-13-13----|
A|-----11-11-11----11-11-11-----14-14-14-----------11-11-11----|
E|-----9--9--9-----11-11-11-----12-12-12-----------------------|

E|-------------------------------------------------------------|
B|-------------------------------------------------------------|
G|-------------------------------------------------------------|
D|---11-11-11---11-11-11---------------------------------------|
A|---9--9--9----9--9--9----14-14-14--14-14\13----13\11---------|
E|-------------------------12-12-12--12-12\11----11\9----------|

Refrão #1:

Little sister can't you find another way
No more livin' life behind the shadow
Little sister can't you find another way
No more livin' life behind the shadow

E|-------------------------------------------------------------|
B|-------------------------------------------------------------|
G|-------------------------------------------------------------|
D|--11-9--11-9--11-9--11-9--11---------------------------------|
A|--9--9--9--9--9--9--9--9--9---14-12-14-12-14-12-14-12--------|
E|------------------------------12-12-12-14-12-12-12-12--------|

E|-------------------------------------------------------------|
D|-------------------------------------------------------------|
E|-------------------------------------------------------------|
G|-------------------------------------------------------------|
D|--13-11-13-11-13-11-13-11--11-9--11-9-11--9--11-9------------|
A|--11-11-11-11-11-11-11-11--9--9--9--9--9--9--9--9------------|
E|-------------------------------------------------------------|

E|-------------------------------------------------------------|
B|-------------------------------------------------------------|
G|-------------------------------------------------------------|
D|--11-9--11-9--11-9--11-9--11---------------------------------|
A|--9--9--9--9--9--9--9--9--9---14-12-14-12-14-12-14-12--------|
E|------------------------------12-12-12-14-12-12-12-12--------|

E|-------------------------------------------------------------|
D|-------------------------------------------------------------|
E|-------------------------------------------------------------|
G|-------------------------------------------------------------|
D|--13-11-13-11-13-11-13-11--11-9--11-9-11--9--11-9------------|
A|--11-11-11-11-11-11-11-11--9--9--9--9--9--9--9--9------------|
E|-------------------------------------------------------------|

Little sister can't you find another way
No more livin' life behind the shadow
Little sister can't you find another way
No more livin' life behind the shadow

E|-------------------------------------------------------------|
B|-------------------------------------------------------------|
G|-------------------------------------------------------------|
D|--11-9--11-9--11-9--11-9--11---------------------------------|
A|--9--9--9--9--9--9--9--9--9---14-12-14-12-14-12-14-12--------|
E|------------------------------12-12-12-14-12-12-12-12--------|

E|-------------------------------------------------------------|
D|-------------------------------------------------------------|
E|-------------------------------------------------------------|
G|-------------------------------------------------------------|
D|--13-11-13-11-13-11-13-11--11-9--11-9-11--9--11-9------------|
A|--11-11-11-11-11-11-11-11--9--9--9--9--9--9--9--9------------|
E|-------------------------------------------------------------|

E|-------------------------------------------------------------|
B|-------------------------------------------------------------|
G|-------------------------------------------------------------|
D|--11-9--11-9--11-9--11-9--11---------------------------------|
A|--9--9--9--9--9--9--9--9--9---14-12-14-12-14-12-14-12--------|
E|------------------------------12-12-12-14-12-12-12-12--------|

E|-------------------------------------------------------------|
D|-------------------------------------------------------------|
E|-------------------------------------------------------------|
G|-------------------------------------------------------------|
D|--13-11-13-11-13-11-13-11----13-11-13-11-13-11-13-11---------|
A|--11-11-11-11-11-11-11-11----11-11-11-11-11-11-11-11---------|
E|-------------------------------------------------------------|

Solo #1 (FX: Matchless Hotbox + Klon Centaur):

E|-------------------------------------------------------------|
B|--12/14\12---------------------------------------------------|
G|--------------11/13\11--------11/13\11-----------------------|
A|------------------------------------------11/13\11-----------|
D|-------------------------------------------------------------|
E|-------------------------------------------------------------| » (2x)

E|-------------------------------------------------------------|
B|-------------------------------------------------------------|
G|-------------------------------------------------------------|
D|-------------------------------------------------13-13-13----|
A|-----11-11-11----11-11-11-----14-14-14-----------11-11-11----|
E|-----9--9--9-----11-11-11-----12-12-12-----------------------|

E|-------------------------------------------------------------|
B|--12/14\12---------------------------------------------------|
G|--------------11/13\11--------11/13\11-----------------------|
A|------------------------------------------11/13\11-----------|
D|-------------------------------------------------------------|
E|-------------------------------------------------------------| » (1x)

Verso #2:

You whisper secrets in my ear
Slowly dancing cheek to cheek
It's such a sweet thing when you open up, baby

E|-------------------------------------------------------------|
B|-------------------------------------------------------------|
G|-------------------------------------------------------------|
D|-------------------------------------------------13-13-13----|
A|-----11-11-11----11-11-11-----14-14-14-----------11-11-11----|
E|-----9--9--9-----11-11-11-----12-12-12-----------------------|

E|-------------------------------------------------------------|
B|-------------------------------------------------------------|
G|-------------------------------------------------------------|
D|-------------------------------------------------13-13-13----|
A|-----11-11-11----11-11-11-----14-14-14-----------11-11-11----|
E|-----9--9--9-----11-11-11-----12-12-12-----------------------|

E|-------------------------------------------------------------|
B|-------------------------------------------------------------|
G|-------------------------------------------------------------|
D|-------------------------------------------------13-13-13----|
A|-----11-11-11----11-11-11-----14-14-14-----------11-11-11----|
E|-----9--9--9-----11-11-11-----12-12-12-----------------------|

E|-------------------------------------------------------------|
B|-------------------------------------------------------------|
G|-------------------------------------------------------------|
D|---11-11-11---11-11-11---------------------------------------|
A|---9--9--9----9--9--9----14-14-14--14-14\13----13\11---------|
E|-------------------------12-12-12--12-12\11----11\9----------|


They say I'll only do you wrong
We come together 'cause I understand
Just who you really are, yeah baby


E|-------------------------------------------------------------|
B|-------------------------------------------------------------|
G|-------------------------------------------------------------|
D|-------------------------------------------------13-13-13----|
A|-----11-11-11----11-11-11-----14-14-14-----------11-11-11----|
E|-----9--9--9-----11-11-11-----12-12-12-----------------------|

E|-------------------------------------------------------------|
B|-------------------------------------------------------------|
G|-------------------------------------------------------------|
D|-------------------------------------------------13-13-13----|
A|-----11-11-11----11-11-11-----14-14-14-----------11-11-11----|
E|-----9--9--9-----11-11-11-----12-12-12-----------------------|

E|-------------------------------------------------------------|
B|-------------------------------------------------------------|
G|-------------------------------------------------------------|
D|-------------------------------------------------13-13-13----|
A|-----11-11-11----11-11-11-----14-14-14-----------11-11-11----|
E|-----9--9--9-----11-11-11-----12-12-12-----------------------|

E|-------------------------------------------------------------|
B|-------------------------------------------------------------|
G|-------------------------------------------------------------|
D|---11-11-11---11-11-11---------------------------------------|
A|---9--9--9----9--9--9----14-14-14--14-14\13----13\11---------|
E|-------------------------12-12-12--12-12\11----11\9----------|

Refrão #2:

Little sister can't you find another way
No more livin' life behind the shadow
Little sister can't you find another way
No more livin' life behind the shadow

E|-------------------------------------------------------------|
B|-------------------------------------------------------------|
G|-------------------------------------------------------------|
D|--11-9--11-9--11-9--11-9--11---------------------------------|
A|--9--9--9--9--9--9--9--9--9---14-12-14-12-14-12-14-12--------|
E|------------------------------12-12-12-14-12-12-12-12--------|

E|-------------------------------------------------------------|
D|-------------------------------------------------------------|
E|-------------------------------------------------------------|
G|-------------------------------------------------------------|
D|--13-11-13-11-13-11-13-11--11-9--11-9-11--9--11-9------------|
A|--11-11-11-11-11-11-11-11--9--9--9--9--9--9--9--9------------|
E|-------------------------------------------------------------|

E|-------------------------------------------------------------|
B|-------------------------------------------------------------|
G|-------------------------------------------------------------|
D|--11-9--11-9--11-9--11-9--11---------------------------------|
A|--9--9--9--9--9--9--9--9--9---14-12-14-12-14-12-14-12--------|
E|------------------------------12-12-12-14-12-12-12-12--------|

E|-------------------------------------------------------------|
D|-------------------------------------------------------------|
E|-------------------------------------------------------------|
G|-------------------------------------------------------------|
D|--13-11-13-11-13-11-13-11--11-9--11-9-11--9--11-9------------|
A|--11-11-11-11-11-11-11-11--9--9--9--9--9--9--9--9------------|
E|-------------------------------------------------------------|

Little sister can't you find another way
No more livin' life behind the shadow
Little sister can't you find another way
No more livin' life behind the shadow

E|-------------------------------------------------------------|
B|-------------------------------------------------------------|
G|-------------------------------------------------------------|
D|--11-9--11-9--11-9--11-9--11---------------------------------|
A|--9--9--9--9--9--9--9--9--9---14-12-14-12-14-12-14-12--------|
E|------------------------------12-12-12-14-12-12-12-12--------|

E|-------------------------------------------------------------|
D|-------------------------------------------------------------|
E|-------------------------------------------------------------|
G|-------------------------------------------------------------|
D|--13-11-13-11-13-11-13-11--11-9--11-9-11--9--11-9------------|
A|--11-11-11-11-11-11-11-11--9--9--9--9--9--9--9--9------------|
E|-------------------------------------------------------------|

E|-------------------------------------------------------------|
B|-------------------------------------------------------------|
G|-------------------------------------------------------------|
D|--11-9--11-9--11-9--11-9--11---------------------------------|
A|--9--9--9--9--9--9--9--9--9---14-12-14-12-14-12-14-12--------|
E|------------------------------12-12-12-14-12-12-12-12--------|

E|-------------------------------------------------------------|
D|-------------------------------------------------------------|
E|-------------------------------------------------------------|
G|-------------------------------------------------------------|
D|--13-11-13-11-13-11-13-11----13-11-13-11-13-11-13-11---------|
A|--11-11-11-11-11-11-11-11----11-11-11-11-11-11-11-11---------|
E|-------------------------------------------------------------|

Solo #2 (FX: Matchless Hotbox + Klon Centaur):

E|-------------------------------------------------------------|
B|--12/14\12---------------------------------------------------|
G|--------------11/13\11--------11/13\11-----------------------|
A|------------------------------------------11/13\11-----------|
D|-------------------------------------------------------------|
E|-------------------------------------------------------------| » (2x)

E|-------------------------------------------------------------|
B|-----12/14\12----14/16\14--------14/16\17----16/14\13--------|
G|-------------------------------------------------------------|
A|-------------------------------------------------------------|
D|-------------------------------------------------------------|
E|-------------------------------------------------------------| » (2x)

E|-------------------------------------------------------------|
B|------14-14-14----16-16-16---------17-17-17------------------|
G|-------------------------------------------------------------|
A|-------------------------------------------------------------|
D|-------------------------------------------------------------|
E|-------------------------------------------------------------|

e |15b---16-16-16----14b-14-14----12h14p12----------------------|
B|-------------------------------------------16h14h13~---------|
G|-------------------------------------------------------------|
A|-------------------------------------------------------------|
D|-------------------------------------------------------------|
E|-------------------------------------------------------------|

E|-------------------------------------------------------------|
B|------12-14-------12h-14-------------------------------------|
G|--13b--------13~---------13------13--11--13--11--13----------|
A|----------------------------------------------------------13-|
D|----------------------------------------------------11s14----|
E|-------------------------------------------------------------|

E|-------------------------------------------------------------|
B|-------------------------------------------------------------|
G|--11h13-----------------------------11h---13-----------------|
A|--------13s11-----------------------------------13h11h9h-11--|
D|--------------9h11-11--9h11---9h11---------------------------|
E|-------------------------------------------------------------|

E|-------------------------------------------------------------|
B|-------------------------------------------------------------|
G|-------------------------------------------------------------|
A|--11~---11-13-11-13-11b-11------13-11-13-10~-----------------|
D|-------------------------------------------------------------|
E|-------------------------------------------------------------|

E|-------------------------------9--9--------------------------|
B|-------------9---------------9--------12-14----13------------|
G|-----------9---------------9-----------------13--------------|
A|--9-9/--11----------9/-11------------------------------------|
D|-------------------------------------------------------------|
E|-------------------------------------------------------------|

E|------------------------------/16----------------------------|
B|--12-14-12-14/16-14-16/17--14-----14-------------------------|
G|-------------------------------------------------------------|
A|-------------------------------------------------------------|
D|-------------------------------------------------------------|
E|-------------------------------------------------------------|

E|----------------------------------14-14-14------------14-14--|
B|--12-14-12-14/16-14-16/17--16/17-----------------------------|
G|-------------------------------------------------------------|
A|-------------------------------------------------------------|
D|-------------------------------------------------------------|
E|-------------------------------------------------------------|

E|--14/16-16-16-14/16-16-16----------12/14-14-14-11------------|
B|-------------------------------------------------------------|
G|-------------------------------------------------------------|
A|-------------------------------------------------------------|
D|-------------------------------------------------------------|
E|-------------------------------------------------------------|

E|-----16----16----16----16-----19----19----16----16-----------|
B|--14----14----16----16-----17----17----13----13--------------|
G|-------------------------------------------------------------|
A|-------------------------------------------------------------|
D|-------------------------------------------------------------|
E|-------------------------------------------------------------| » (4x)
Composição de Joey Castillo / Josh Homme / Troy Van Leeuwen
Colaboração e revisão:
  • Rodrigo Novac
  • Gustavo Silva
  • Bernardo Brant
85.483 exibições
    • ½ Tom
    • A
    • Bb
    • B
    • C
    • Db
    • D
    • Eb
    • E
    • F
    • F#
    • G
    • Ab
  • Adicionar à lista

    0 comentários

    Ver todos os comentários
    00:00 / 00:00
    Outros vídeos desta música
    Repetir Qualidade Automático
    Outros vídeos desta música
    00:00 / 00:00
    Automático

    Cifra Club Pro

    Aproveite o Cifra Club com benefícios exclusivos e sem anúncios
    Cifra Club Pro
    Aproveite o Cifra Club com benefícios exclusivos e sem anúncios
    OK