Cifra Club

Aprenda

Bang Your Head

Quiet Riot

Cifra: Principal (violão e guitarra)
tom: G
Intro Guitarra 1

    A5 C5  G5       A5 D5
E|--------------------------|
B|--------------------------|
G|-0~~-5—--------------2—7-7|
D|-0~~-5--5~-5---------2—7-7|
A|-2~~-3-—5~-5-3-0-3---0—5-5|
E|--------3~-3--------------|

    A5 C5  G5       A5 D5
E|-----------------------------|
B|-----------------------------|
G|-0~~-5—--------------2—------|
D|-0~~-5--5~-5---------2—------|
A|-2~~-3-—5~-5-3-0-3---0-------|
E|--------3~-3------------0-3b-| 
(2x)

Intro Guitarra 2

    A5 C5  G G       A5  D
E|--------3-3-----------2-2|
B|--------3-3-----------3-3|
G|-0~~---0-0--------2—-2-2|
D|-0~~----0-0--------2—-0-0|
A|-2~~-3--2-2--3-0-3-0—----|
E|--------3-3--------------|

    A5 C5  G G       A5  D
E|--------3-3-----------------|
B|--------3-3-----------------|
G|-0~~---0-0--------2—-------|
D|-0~~----0-0--------2—-------|
A|-2~~-3--2-2--3-0-3-0—-------|
E|--------3-3-----------0--3b-|


VERSOS 

GUITARRA CLEAN COM CHORUS
 A                  B
I'm an axe grinder, pile driver

C                        B
Mama says that I never, never mind her

A               B
Got no brains, I'm insane

C                       B
The teacher says that I'm one big pain


PRÉ - REFRÃO GUITARRA COM DRIVE

A5                B5
I'm like a lazer, six string razor

C5            B5
I've got a mouth like an alligator


A5                B5
I want it louder, more power

C5                          D5
I'm gonna rock it till it strikes the hour

REFRÃO (MESMO RIFF DA INTRO)

    A5 C5  G5       A5 D5
E|--------------------------|
B|--------------------------|
G|-0~~-5—--------------2—7-7|
D|-0~~-5--5~-5---------2—7-7|
A|-2~~-3-—5~-5-3-0-3---0—5-5|
E|--------3~-3--------------|

    A5 C5  G5       A5 D5
E|-----------------------------|
B|-----------------------------|
G|-0~~-5—--------------2—------|
D|-0~~-5--5~-5---------2—------|
A|-2~~-3-—5~-5-3-0-3---0-------|
E|--------3~-3------------0-3b-| 

             A5 C5 G5
Bang your head

G5                            A5 D5
Metal health will drive you mad

             A5 C5 G5
Bang your head

G5                             A5
Metal health will drive you mad

(REPETE TUDO SÓ MUDA A LETRA)

PASSAGEM PÓS REFRÃO

Metal health will cure your crazy
Metal health will cure your mad
Metal health is what we all need
It's like a heart attack!

   C5 A5
E|------|
B|------|
G|5—2---|
D|5-2---|
A|3-0—--|
E|------| (4X)

INTERLÚDIO INSTRUMENTAL

(ATENÇÃO PARA A DINAMICA, USA-SE O P.M.)


B5 (14X) - D5 (14X) - E5

E VOLTA NO RIFF DA INTRODUÇÃO, DEPOIS FICA SÓ O BAIXO, A GUITARRA FICA ASSIM
   P.M..............................
E|-----------------------------------------|
B|-----------------------------------------|
G|—----------------------------------------|
D|-----------------------------------------|
A|-5-5-5---5-5-5---5-5-5---5-5-5---5 (12X)-|
E|-----------------------------------------|

OBS: NÃO É PARA APERTAR, SOMENTE ENCOSTAR O DEDO EM CIMA QUE SOARÁ IGUAL A ORIGINAL.

SOLO 1


E|-----------------------------------------|
B|-----8-10p8-10p8-10b12--10b12r-8--10-8~--|
G|—-/9-------------------------------------|
D|-----------------------------------------|
A|-----------------------------------------|
E|-----------------------------------------|

E|-----------------------------------------|
B|--12b14r--10--12-10~---------------------|
G|—----------------------------------------|
D|-----------------------------------------|
A|-----------------------------------------|
E|-----------------------------------------|

E|-----------------------------------------|
B|--10h13p10.......13b--13b15r-10-13-10~---|
G|—----------------------------------------|
D|-----------------------------------------|
A|-----------------------------------------|
E|-----------------------------------------|

E|------------------15------15------15----15-----|
B|--15b17r15-12-15b----15b~-----15b----15b---15b-|
G|—----------------------------------------------|
D|-----------------------------------------------|
A|-----------------------------------------------|
E|-----------------------------------------------|

E|-15b17r-12--15b17r--12--15b17r-15b17r9-(3x)--15b~~|
B|--------------------------------------------------|
G|—-------------------------------------------------|
D|--------------------------------------------------|
A|--------------------------------------------------|
E|--------------------------------------------------|

(Vai ficar faltando o solo final, ainda estou tirando mais ele começa assim;

E|----------------------------20b------------------|
B|-----17--19-19b--19b21r-17~----------------------|
G|—/18---------------------------------------------|
D|-------------------------------------------------|
A|-------------------------------------------------|
E|-------------------------------------------------|
Composição de Carlos Cavazo / Frankie Banali / Kevin DuBrow
Colaboração e revisão:
22.052 exibições
    • ½ Tom
    • A
    • Bb
    • B
    • C
    • Db
    • D
    • Eb
    • E
    • F
    • F#
    • G
    • Ab
  • Adicionar à lista

    0 comentários

    Ver todos os comentários

    Conseguiu tocar?

    4 Tocaram 0 Ainda não

    Grave um vídeo tocando Bang Your Head e nos envie!

    00:00 / 00:00
    Outros vídeos desta música
    Repetir Qualidade Automático
    Outros vídeos desta música
    00:00 / 00:00
    Automático

    Cifra Club Pro

    Aproveite o Cifra Club com benefícios exclusivos e sem anúncios
    Cifra Club Pro
    Aproveite o Cifra Club com benefícios exclusivos e sem anúncios
    OK