Cifra Club

Aprenda

Come On Feel The Noise

Quiet Riot

Cifra: Principal (violão e guitarra)
Tom: D
[Intro]

Come on feel the noise
Girls rock your boys
We'll get wild,wild,wild           slide abafado E|2/15/5
Wild,wild,willlddd

  G           B           E             A  G  D A  G  D
|------------------------------------------3-------3----------------------------|
|------------------------------------------3--3----3--3-------------------------|
|-------------4-4-4-4-4-4------------------0--2----0--2-------------------------|
|-5-5-5-5-5-5-4-4-4-4-4-4-2-2-2-2-2-2---7-----0-7-----0-------------------------|2x
|-5-5-5-5-5-5-2-2-2-2-2-2-2-2-2-2-2-2---7--2----7--2----------------------------|
|-3-3-3-3-3-3-------------0-0-0-0-0-0---5--3----5--3----------------------------|

G                     B         E
So you think i've got an evil mind,I'll tell you honey
        A   G  D     A     G  D       
I don't know why i don't know why
G               B                    E     
So you think my singing's out of time,it makes me money
A       G   D    A     G  D   E
I don't know why i don't know why  
    D
Oow no

Refrão
  G       F#      E       G       F#      E        A  G  D  A  G  D D   
E|-----------------------------------------------------3--------3-------------------|
B|-----------------------------------------------------3--3-----3--3----------------|
G|-----------------------------------------------------0--2-----0--2-7-7-7-7-7-7-7--|
D|-5-5-5-5-4-4-4-4-2-2-2-2-5-5-5-5-4-4-4-4-2-2-2-2--7--------7-----0-7-7-7-7-7-7-7--|2x
A|-5-5-5-5-4-4-4-4-2-2-2-2-5-5-5-5-4-4-4-4-2-2-2-2--7--2-----7--2----5-5-5-5-5-5-5--|
E|-3-3-3-3-2-2-2-2-0-0-0-0-3-3-3-3-2-2-2-2-0-0-0-0--5--3-----5--3-------------------|

[Refrão]

G       F#       E
Come on feel the noise
G     F#        E
Girls rock your boys 
          A    G    D
We'll get wild,wild,wild           
A    G    D
Wild,wild,willlddd

versos
G                    B          E
So you think i've got a funny face,i've got no worries
      A     G     D      
And i don't know why
  A     G     D
I don't know why
G                           B            E
So i'm a scruff bag well it's no disgrace,im in no hurry
     A     G      D    
And i don't know why 
  A     G     D
I don't know why
E       D
Anymore Ow no

Refrão 2x

COME ON!!!!!!

Ponte 

G F# E

Solo
E|----------------------------------------------------|
B|----------------------------------------------------|
G|----------------------------------12h14p12----------|
D|----------------------12h14p12h14----------14p12h14-|
A|----------12h14p12h14-------------------------------|
E|-15p12h15-------------------------------------------|

E|----------------------------------12h15p12----12----|
B|----------------------12h15p12h15----------15-------|
G|----------12h14p12h14-------------------------------|
D|-14p12h14-------------------------------------------|
A|----------------------------------------------------|
E|----------------------------------------------------|

E|-15b17-----------15-14-15p14-15p14----|-14-------------------------------|
B|-----------------------------------17-|----17b19r-----17-15--------12-13-|
G|--------------------------------------|----------------------------------|
D|--------------------------------------|----------------------------------|
A|--------------------------------------|----------------------------------|
E|--------------------------------------|----------------------------------|

E|---------------------------|----------------------------|
B|-15-13-12-13------12----12-|---------------------12-13--|
G|---------------------14----|------14-12----12-14--------|
D|---------------------------|------------14--------------|
A|---------------------------|----------------------------|
E|---------------------------|----------------------------|

E|---------------------------|------------------------------|
B|-15-13-12-13------12----12-|---------------------------12-|
G|---------------------14----|------14-12-12b14r------------|
D|---------------------------|------------------------------|
A|---------------------------|------------------------------|
E|---------------------------|------------------------------|

E|-15b17--15b17--15b17r-----14h15b17r|------15b17-15p14------------|
B|-----------------------------------|------------------15------12-|
G|-----------------------------------|-----------------------------|
D|-----------------------------------|-----------------------------|
A|-----------------------------------|-----------------------------|
E|-----------------------------------|-----------------------------|

E|-15b17--15b17--15b17r-----14h15b17r|------15b17-15p14------------|
B|-----------------------------------|------------------15------15-|
G|-----------------------------------|-----------------------------|
D|-----------------------------------|-----------------------------|
A|-----------------------------------|-----------------------------|
E|-----------------------------------|-----------------------------|

E|-17b19---17b19r-------17b19r|------15-17-17b19-17b19-----15-|
B|----------------------------|-------------------------------|
G|----------------------------|-------------------------------|
D|----------------------------|-------------------------------|
A|----------------------------|-------------------------------|
E|----------------------------|-------------------------------|

     PM---|      PM---|      PM--------------------|
E|-19-15-15-15-17-15-15-15-19-15-15-15-17-15-14-14---|
B|---------------------------------------------------|
G|---------------------------------------------------|
D|---------------------------------------------------|
A|---------------------------------------------------|
E|---------------------------------------------------|

E|-17p14-15p14----15------------------------------|
B|-------------17----17p15h17-15-17b19r-----------|
G|------------------------------------------------|
D|------------------------------------------------|
A|------------------------------------------------|
E|------------------------------------------------|

E|-------------------------------------------------|
B|-------------------------------------------------|
G|----------------------------------12h14p12-------|
D|----------------------12h14p12h14----------14p12h|
A|----------12h14p12h14----------------------------|
E|-15p12h15----------------------------------------|

E|----------------------------------12h15p12----12-|
B|----------------------12h15p12h15----------15----|
G|----------12h14p12h14----------------------------|
D|-14p12h14----------------------------------------|
A|-------------------------------------------------|
E|-------------------------------------------------|

E|-15b17----------14h15p14----14h15p14----|---------17-20b22----------------|
B|-------------------------17----------17-|-17h19---------------------------|
G|----------------------------------------|---------------------------------|
D|----------------------------------------|---------------------------------|
A|----------------------------------------|---------------------------------|
E|----------------------------------------|---------------------------------|

G                       B         E
Well you think we are the lazy type,you should know better
      A     G    D
I don't   know  why            Solo em escala de D (Ré Maior)
   A    G    D
I don't know why

So you say i got a dirty mind, i'm a mean go getter
I don't know why
I don't know why anymore
Composição de Jim Lea / Noddy Holder
Colaboração e revisão:
  • Eliezer Lopes
  • Vinicius Terlizzi
24.754 exibições
    • ½ Tom
    • A
    • Bb
    • B
    • C
    • Db
    • D
    • Eb
    • E
    • F
    • F#
    • G
    • Ab
  • Adicionar à lista

    0 comentários

    Mostrar mais comentários

    Conseguiu tocar?

    2 Tocaram 0 Ainda não

    Grave um vídeo tocando Come On Feel The Noise e mande pra gente!

    00:00 / 00:00
    outros vídeos desta música
    repetir qualidade Automático
    Outros vídeos desta música
    00:00 / 00:00
    Automático
    OK