Cifra Club

Aprenda

Nude

Radiohead

Tab de baixo: Versão 2
Quer fazer aulas de música com a gente? Responda essas perguntas
e nos ajude nesse projeto! →
Tabbed by: Jeff A.
Email: *

The X's in this tab are open ghost notes.  Softly hit the open note, or just mute the 
quickly and lightly.

0:40
G|-------------------------------------------------------|
D|--------18------18-------------------18------18--------|
A|-------------------------------------------------------|
E|---16--------16----16-16------X-16--------16----16-16--|

G|----------------------------|   ----- \
D|--------18------18----------|    ---- \
A|----------------------------|     --- \
E|-X-16--------16----16-16----|x3    -- \
                                       \
G|----------------------------|        ----- \
D|--------19------19----------|         ---- \
A|----------------------------|          --- \
E|-X-17--------17----17-17----|x2         -- \
                                            \
G|----------------------------|             ---- \
D|--------14------14----------|              --- \
A|----------------------------|              --- \ x2
E|-X-12--------12----12-12---------------------- \              /
                                            /
                                           /
G|--------18------18---------------------- \           /
D|---------------------------------------- \          /
A|-X-16--------16----16-16---------------- \         /
E|----------------------------|x2--------- \      /
                                      /
G|-------16-------16----------------- \      /
D|----------------------------------- \     /
A|-X-14--------14----14-14----------- \    /
E|----------------------------------- \x2

3:06  "is thinkingggggggggg....."
G|------|
D|------|
A|--14--|
E|------|

3:11
G|----------------------------|   ----- \
D|--------18------18----------|    ---- \
A|----------------------------|     --- \
E|-X-16--------16----16-16----|x2    -- \
                                       \
                                       / x2
G|------------------------------------ \       /
D|--------19------19------------------ \      /
A|------------------------------------ \     /
E|-X-17--------17----17-17------------ \x2  /

3:34
G|--------18------18----------|
D|----------------------------|
A|-X-16--------16----16-16----|
E|----------------------------|x2

G|----------------------------|
D|--------19------19----------|
A|----------------------------|
E|-X-17--------17----17-17----|x2

3:45
G|-------------------------------------------|
D|-------14------14--------------------------|
A|-----------------------------------12--14--|
E|--12--------12----12-12------X-12----------|

G|----------------------------|
D|--------14------14----------|
A|----------------------------|
E|-X-12--------12----12-12----|x2

3:56
G|--------18------18----------|
D|----------------------------|
A|-X-16--------16----16-16----|
E|----------------------------|

G|--------16------16----------|
D|----------------------------|
A|-X-14--------14----14-14----|
E|----------------------------|

G|------------------------------------------|
D|--------19------19------------------------|
A|------------------------------------------|
E|-X-17--------17----17-17-------X-17---/19-|


I might have missed some subtleties, but overall I am pretty sure this tab is correct.


| /  slide up
| \  slide down
| h  hammer-on
| p  pull-off
| ~  vibrato
| +  harmonic
| x  Mute note
===============================================================================
Composição de Radiohead
275 exibições

0 comentários

Ver todos os comentários

Conseguiu tocar?

0 Tocaram 0 Ainda não

Grave um vídeo tocando Nude e nos envie!

00:00 / 00:00
Outros vídeos desta música
Repetir Qualidade Automático
Outros vídeos desta música
00:00 / 00:00
Automático

Cifra Club Pro

Aproveite o Cifra Club com benefícios exclusivos e sem anúncios
Cifra Club Pro
Aproveite o Cifra Club com benefícios exclusivos e sem anúncios
OK