Cifra Club

Aprenda

Ela Me Faz

Rael da Rima

Tab de baixo: Principal
“Ela me faz feliz...”
G|-------------------------------|-----------------------------| 
D|-------------------------------|-----------------------------|
A|-------------7--07-6-5--05-7---|-----------------7--5--05-7--|
E|-17/5-5--05-8----------------5-|-05-88-5--6-5-5-8----------5-|


G|--------------------------------|--------------------------| 
D|--------------------------------|--------------------------|
A|--------------7--07-6-5--05-7---|--------------7--5--05-7--|
E|-05-88-5--05-8----------------5-|-05-88-5--05-8----------5-|


G|--------------------------------|-----------------------| 
D|--------------------------------|-----------------------|
A|--------------7--07-6-5--05-7---|---------7--5--05-7----|
E|-05-88-5--05-8----------------5-|-05-8-5-------------5--|


G|-------------------------------------| 2x
D|------------7----------9--------7----|
A|-------------7---7--7---7-5--5---5---|
E|-05-88-5--5----5-------------------5-|


G|--------------------------------|-------------------------------| 2x
D|--------------------------------|-------------------------------|
A|--------------7--07-6-5--05-7---|-------------7--07-6-5--05-7---|
E|-05-88-5--05-8----------------5-|-05-8-5--05-8----------------5-|


G|--------------------------------| 2x
D|--------------------------------|
A|--------------7--07-6-5--05-7---|
E|-05-88-5--05-8----------------5-|


G|----------------------------------------|
D|----------------------------------------|
A|----------17-19-19/20\19-19-17----17----|
E|-17-19-20----------------------19----17-|
Composição de Rael Da Rima
Colaboração e revisão:
  • Gustavo Caires
712 exibições

0 comentários

Mostrar mais comentários

Conseguiu tocar?

0 Tocaram 0 Ainda não

Grave um vídeo tocando Ela Me Faz e mande pra gente!

00:00 / 00:00
outros vídeos desta música
repetir qualidade Automático
Outros vídeos desta música
00:00 / 00:00
Automático

Cifra Club Pro

Aproveite o Cifra Club com benefícios exclusivos e sem anúncios
Cifra Club Pro
Aproveite o Cifra Club com benefícios exclusivos e sem anúncios
OK