Cifra Club

Aprenda

O Hip Hop É Foda

Rael da Rima

Cifra: Principal (violão e guitarra)
Tom: B
     G#m                      C#m
E|-----------------------------------------------------------|
B|-----------------------------------------------------------|
G|-----------------------9---------8---8h9p8-----------------|
D|-----9--------------11---(4x)--9---9-------9---------------|
A|--11----(7x)-----------------------------------------------|
E|-----------------------------------------------------------|

G#m
Começamos nos guetos das grandes capitais
C#m
Movimento dos pretos e de seus ideais
G#m
Somos filhos de Ketu, somos originais
C#m
Hip hop é feito com tempero de paz
G#m
Dançamos por aí, grafitamos murais
C#m
Lá eles têm Jay-Z, aqui tem Racionais
G#m
Pode ser Mc, se não for tanto faz
C#m
O importante é sentir

              (frase pré refrão)
E|-----------------------------------------------------------|
B|--12------------16-----------------------------------------|
G|--11------------15-----------------------------------------|
D|--9-------------13-----------------------------------------|
A|-----------------------------------------------------------|
E|-----------------------------------------------------------|

              (solo do refrão)          
E|-----------------------------------------------------------|
B|-11h12p11-------------11h12p11-----------------------------|
G|----------13-11-----------------13-11----11----------------|
D|----------------13--------------------13----13~------------|
A|-----------------------------------------------------------|
E|-----------------------------------------------------------|

E|-----------------------------------------------------------|
B|-11h12p11-------------11h12p11-----------------------------|
G|----------13-11-----------------13-11----11--13~------------|
D|----------------13--------------------13-------------------|
A|-----------------------------------------------------------|
E|-----------------------------------------------------------|

G#m
Que o hip hop é foda
C#m
Que o hip hop é foda
G#m
Que o hip hop é
C#m
Foda, fo-fo-fo, foda, é!...(4x)

G#m
Mas é um universo imenso em cada verso
C#m
E cada vez que verso com alguém eu converso
G#m
Cada canto que toca
C#m
Seja pros muthafukka
G#m
Pra quem é do pipoco ou se é só é pipoca
C#m
Seja careta ou louco
G#m
Seja boy ou maloca
C#m
Isso pra mim é pouco
G#m
O importante é que

G#m
O hip hop é foda
C#m
O hip hop é foda
G#m
O hip hop é
C#m
Foda, fo-fo-fo, foda, é!...(4x)

G#m
Já salvou muito mais
C#m
Que várias Ongs banais
G#m
Dialogou muito mais
C#m
Que professores e pais
G#m
Projetos sociais
C#m
Não seduz marginais
G#m
Mas põe um rap pra ouvir
C#m
A diferença que faz
G#m
Eu sei que é foda
C#m
E que tá na moda
G#m
Mas quando é pesado e verdadeiro te incomoda
C#m
É foda, é fato
G#m
Tempo quatro por quatro
C#m
Mc, b-boy, grafite e o Dj riscando os pratos

G#m
O hip hop é foda
C#m
O hip hop é foda
G#m
O hip hop é
C#m
O hip hop é foda
Composição de Rael Da Rima
Colaboração e revisão:
  • igor agueme
21.571 exibições
    • ½ Tom
    • A
    • Bb
    • B
    • C
    • Db
    • D
    • Eb
    • E
    • F
    • F#
    • G
    • Ab
  • Adicionar à lista

    0 comentários

    Mostrar mais comentários

    Conseguiu tocar?

    2 Tocaram 0 Ainda não

    Grave um vídeo tocando O Hip Hop É Foda e mande pra gente!

    00:00 / 00:00
    outros vídeos desta música
    repetir qualidade Automático
    Outros vídeos desta música
    00:00 / 00:00
    Automático

    Cifra Club Pro

    Aproveite o Cifra Club com benefícios exclusivos e sem anúncios
    Cifra Club Pro
    Aproveite o Cifra Club com benefícios exclusivos e sem anúncios
    OK